» » »

Production City Bass tabs (ver.1)

Artists:  A B C D E F G H I J K L M N O P Q R S T U V W X Y Z # 

Production City Bass tabs (ver.1)

The Whigs
Rating:
5/5 (3 votes)

Tabs too difficult? Try these video lessons and learn fast.
                Great Song, Great Band.
Enjoy the song, it's dead on.

Bass kicks in after the intro
Main verse Riff
G|----------------------6----------|
D|-----------77777---7-7--7-----7--|
A|-----5--7-----------------7779---|
E|---------------------------------|

Prechorus 1 and 2
G|---------------------------------------------|
D|-----------7-7-7-7-7---7-7-7-7-7---7-7-7-7-7-|
A|--5---7--------------------------------------|
E|---------------------------------------------|

Chorus Riff
(two ways to do same riff)
Way one (I like this way better =P)
G|---------------------------------|
D|--11-----------------------------|
A|------12-9-12--9-7-9--7-5-7--5---|
E|-------------------------------5-|

Way Two (Less hand movement)
G|--6---------------------------|
D|-----7-4-7--4---4-------------|
A|--------------7----7-5-7--5---|
E|----------------------------5-|

Post Chorus
G|------------------------------------------|
D|--5/7---7-7--3/5---5-5--------------------|
A|------------------------3/5---5-5-5-5-5-5-|
E|------------------------------------------|

Post Chorus 2 outro
G|----------------------------------------------------|
D|--5/7---7-7--3/5---5-5------------------------------|
A|------------------------55555--55555--5555555555555-|
E|----------------------------------------------------|
                                        ^[thirteen 5's]

Prechorus 3
G|---------------------------------------------|
D|---------------------------------------------|
A|--5---7--------------------------------------|
E|-----------5---5---5---5---5---5---5---5---5-|

Post Chorus 3 Outro
G|-----------------------------------------|
D|--5/7---7-7--3/5---5-5-------------------|
A|------------------------3/5---5----------|
E|-----------------------------------------|


Song order-
Main riff
Prechorus 1
Chorus
Main riff
Prechorus 1
Chorus
Post Chorus
Post Chorus 2 Outro
Main Riff
Prechorus 3
Chorus
Post Chorus
Post Chorus 3 Outro

Sorry I'm not going to say how many times each riff is played, you can figure that out 
This tab is dead on and was fun to figure out. Thanks for looking and listening to such a 
band.

-Bradgluk
            
Tabs too difficult? Try these video lessons and learn fast.




comments powered by Disqus
↑ Back to top | Tablatures and chords are parodies/interpretations of the original songs. You may use it for private study, scholarship, research or language learning purposes only