» » »

Native Eye Tabs (ver.1)

Artists:  A B C D E F G H I J K L M N O P Q R S T U V W X Y Z # 

Native Eye Tabs (ver.1)

Xavier Rudd
Rating:
0/5 (0 votes)

Tabs too difficult? Try these video lessons and learn fast.
                PLEASE NOTE- I did'nt create this tab, i got these from archives i found from  "xrtab" 
has shut down. I only put these tabs on to make it easy for people to find these tabs now 
the site has shut down. -Peace


Xaiver Rudd - The Native Eye from Live In Canada (2001)
------------------------

Notation
m - silence strings
d - strum down
u - strum up


Verse Riff
E|----------------------------||
B|----------------------------||
G|-------2-2-2-x-4------------||
D|-2-2-x-2-2-2-x-4-2-2---0h2--||
A|-2-2-x-0-0-0-x-2-2-2---0h2--||
E|-0-0-x-----------0-0--------||

Verse Riff Variation
E|----------------------------||
B|----------------------------||
G|-------2-2-2-x-4-6-6-6-4h6--||
D|-2-2-x-2-2-2-x-4-6-6-6-4h6--||
A|-2-2-x-0-0-0-x-2-4-4-4-4----||
E|-0-0-x----------------------||

Verse End
E|--------------------||
B|--------------------||
G|-------2-2-2-x-4----||
D|-2-2-x-2-2-2-x-4-2--||
A|-2-2-x-0-0-0-x-2-2--||
E|-0-0-x-----------0--||

Chorus Riff
E|------------------------||
B|------------------------||
G|----------22222---------||
D|--4444----22222---------||
A|--4444----00000----0----||
E|--22222h4--------4---4--||

Chorus End
E|-------------||
B|-------------||
G|--------- 2--||
D|--4444----2--||
A|--4444----0--||
E|--22222h4----||

Bridge
B A E A

---------d-u--------------------d-u-----------

E|-------x0m---xxxxxx-------x0m-xx------------||
B|-------x0m---xxxxxx-------x0m-xx------------||
G|-------x------xxxxxx------x-----xx-------0--||
D|--2-2---------xxxxxx--2-2-------xx---0h2----||
A|--2-2---------xxxxxx--2-2-------xx----------||
E|--0-0---------xxxxxx--0-0-------xx----------||

E|-------------------------------||
B|-88888-xxxxx-88888-8p7-xxxxxx--||
G|-77777-xxxxx-77777-7---xxxxxx--||
D|-99999-xxxxx-99999-9p7-xxxxxx--||
A|-77777-xxxxx-77777-7---xxxxxx--||
E|-------------------------------||

E|-----------------------------------------------0--||
B|-8888-7-7-xxx-6666-5-5-xxx-4444-3-3-xxx-3333---0--||
G|-7777-7-7-xxx-5555-5-5-xxx-3333-3-3-xxx-3333---1--||
D|-9999-7-7-xxx-7777-5-5-xxx-5555-3-3-xxx-3333---2--||
A|-7777-7-7-xxx-5555-5-5-xxx-3333-3-3-xxx-3333---2--||
E|-----------------------------------------------0--||
            
Tabs too difficult? Try these video lessons and learn fast.


comments powered by Disqus
↑ Back to top | Tablatures and chords are parodies/interpretations of the original songs. You may use it for private study, scholarship, research or language learning purposes only