» » »

Ocean Avenue Tabs (ver.4)

Artists:  A B C D E F G H I J K L M N O P Q R S T U V W X Y Z # 

Ocean Avenue Tabs (ver.4)

Yellowcard
Rating:
0/5 (0 votes)

Tabs too difficult? Try these video lessons and learn fast.
                Yellowcard - Ocean Avenue tab.
Tried my best and this is my first so check it and rate it good and comment any errors
Lead guitar plays this:

GUITAR 1 (9x)
Intro:
e|---------------------------------------------------------------------------|
B|---------------------------------------------------------------------------|
G|---------------------------------------------------------------------------|
D|-6-6-6-6--7-7-7-7-7-7--4-4-4-4--4-4-4-4-4-4--------------------------------|
A|-2-2-2-2--4-4-4-4-4-4--0-0-0-0--0-0-0-0-0-0--------------------------------|
D|-2-2-2-2--4-4-4-4-4-4--0-0-0-0--0-0-0-0-0-0--------------------------------|
pm . . . .  . . . . . .  . . . .  . . . . . .


As lead guitar plays the intro above, play this on rhythm guitar:

GUITAR 2
INTRO / VERSE 1 & 2
e|---------------------------------------------------------------------------------|
B|---------------------------------------------------------------------------------|
G|---9-----9----------9------9----------9-----9------------6-------7-------6-------|
D|-----9-----9----------7------7----------7------7----------------7-------7--------|
A|-7-----7-----7----9------9-----9----7------7-----7-------------7-------7---------|
D|---------------------------------------------------------------------------------|

Chorus : "If I could find you now things would be better.." 
Guitar 1
e|-------------------------------------------------------|
B|-------------------------------------------------------|
G|-------------------------------------------------------|
D|-2-2-2-2-2-2-4-4-4-4-4-4-0-0-0-0-0-0-0-0-0-0-0-0-------| 3x
A|-2-2-2-2-2-2-4-4-4-4-4-4-0-0-0-0-0-0-0-0-0-0-0-0-------|
D|-2-2-2-2-2-2-4-4-4-4-4-4-0-0-0-0-0-0-0-0-0-0-0-0-------|


Guitar 2:
e|-------------------------------------------------------|
B|-------------------------------------------------------|
G|-9-9-9-9-9-9-11-11-11-11-11-11-7-7-7-7-7-7-7-7-7-7-7-7-|
D|-9-9-9-9-9-9-11-11-11-11-11-11-7-7-7-7-7-7-7-7-7-7-7-7-| 3x
A|-7-7-7-7-7-7-9--9--9--9--9--9--5-5-5-5-5-5-5-5-5-5-5-5-|
D|-------------------------------------------------------|


GUITAR 1: repeat intro (4X)

GUITAR 2: repeat verse

BOTH GUITARS: repeat chorus now 4X


Bridge:

Bridge 1: 2x
e|---------------------------------------------------------------------------|
B|---------------------------------------------------------------------------|
G|-2-2-2-2--2-2-2-2-2-2------------------------------------------------------|
D|-2-2-2-2--2-2-2-2-2-2------------------------------------------------------|
A|-0-0-0-0--0-0-0-0-0-0------------------------------------------------------|
D|---------------------------------------------------------------------------|


Bridge 2: 2x
e|---------------------------------------------------------------------------|
B|---------------------------------------------------------------------------|
G|-2-2-2-2-2-2-2-2-2-2-2-2-2-2-2-2-------------------------------------------|
D|-2-2-2-2-2-2-2-2-2-2-2-2-2-2-2-2-4-4-4-4-4-4-4-4-4-4-4-4-4-4-4-4-----------|
A|-0-0-0-0-0-0-0-0-0-0-0-0-0-0-0-0-4-4-4-4-4-4-4-4-4-4-4-4-4-4-4-4-----------|
D|---------------------------------4-4-4-4-4-4-4-4-4-4-4-4-4-4-4-4-----------|

e|---------------------------------------------------------------------------|
B|---------------------------------------------------------------------------|
G|---------------------------------------------------------------------------|
D|-2-2-2-2-2-2-2-2-6-6-6-6-7-7-7-7-0-0-0-0-0-0-0-0-0-0-0-0-0-0-0-0-----------|
A|-2-2-2-2-2-2-2-2-6-6-6-6-7-7-7-7-0-0-0-0-0-0-0-0-0-0-0-0-0-0-0-0-----------|
D|-2-2-2-2-2-2-2-2-6-6-6-6-7-7-7-7-0-0-0-0-0-0-0-0-0-0-0-0-0-0-0-0-----------|


GUITAR 1: no bridge 1

Bridge 2: (until the chorus)
e|---------0-----------------------------------------------------------------|
B|------0-----0--------------------------------------------------------------|
G|-1h2-----------------------------------------------------------------------|
D|---------------------------------------------------------------------------|
A|---------------------------------------------------------------------------|
D|---------------------------------------------------------------------------|


Repeat Chorus


Guitar 1
Outro:  1x
e|---------------------------------------------------------------------------|
B|---------------------------------------------------------------------------|
G|---------------------------------------------------------------------------|
D|-2-2-2-2--4-4-4-4-4-4--0-0-0-0--0-0-0-0-0-0--------------------------------|
A|-2-2-2-2--4-4-4-4-4-4--0-0-0-0--0-0-0-0-0-0--------------------------------|
D|-2-2-2-2--4-4-4-4-4-4--0-0-0-0--0-0-0-0-0-0--------------------------------|

Ending:

e|----------------------------------------------------------|
B|----------------------------------------------------------|
G|----------------------------------------------------------|
D|-2-2-2-2--4-4-4-4-4-4--00--5-4-2-0~ let ring*-------------|
A|-2-2-2-2--4-4-4-4-4-4--00--5-4-2-0~ ----------------------|
D|-2-2-2-2--4-4-4-4-4-4--00--5-4-2-0~ ----------------------|


Guitar 2
Outro:  1x
e|-----------------------------------------------------|
B|-----------------------------------------------------|
G|-9-9-9-9--11-11-11-11-11-11--7-7-7-7-7-7-7-7-7-7-----|
D|-9-9-9-9--11-11-11-11-11-11--7-7-7-7-7-7-7-7-7-7-----|
A|-7-7-7-7---9--9--9--9--9--9--5-5-5-5-5-5-5-5-5-5-----|
D|-----------------------------------------------------|


Ending:
e|----------------------------------------------------|
B|----------------------------------------------------|
G|-9-9-9-9--11-11-11-11-11-11-------------------------|
D|-9-9-9-9--11-11-11-11-11-11--00--7-7-4-2~ let ring*-|
A|-7-7-7-7---9--9--9--9--9--9--00--5-4-2-0~ ----------|
D|-----------------------------00---------------------|
            
Tabs too difficult? Try these video lessons and learn fast.


comments powered by Disqus
↑ Back to top | Tablatures and chords are parodies/interpretations of the original songs. You may use it for private study, scholarship, research or language learning purposes only