» » »

Livin' Th' Dream Tabs (ver.1)

Artists:  A B C D E F G H I J K L M N O P Q R S T U V W X Y Z # 

Livin' Th' Dream Tabs (ver.1)

You Me And Everyone We Know
Rating:
0/5 (0 votes)

Tabs too difficult? Try these video lessons and learn fast.
                (/) Slide Up  (\) Slide Down  (~) Let Ring  (h) Hammer On   (p) Pull Off



Intro:
E|--------------------------------------------------------------------------|
B|--------------------------------------------------------------------------|
G|-------------------------444-888-888-866-666-666--444-888-888-866-666-666-|
D|-4-----8-----6-----9-----444-888-888-866-666-666--444-888-888-866-666-666-|
A|-4(x8)-8(x8)-6(x8)-9(x8)-222-666-666-644-444-444--222-666-666-644-444-444-|
D|-4-----8-----6-----9------------------------------------------------------|
   [Palm-muted:::::::::::]


Verse 1:
E|--------------------------------------------------|
B|--------------------------------------------------|
G|--------------------------------------------------|
D|-4-----8-----6-----9------4-----8-----6-----9-----|
A|-4(x8)-8(x8)-6(x8)-9(x8)--4(x8)-8(x8)-6(x8)-9(x8)-|
D|-4-----8-----6-----9------4-----8-----6-----9-----|
   [Palm-muted::::::::::::::::::::::::::::::::::::] 

E|--------------------------------------------------|
B|--------------------------------------------------|
G|--------------------------------------------------|
D|-4-----8-----6-----9------4-----8-----6-----9-----|
A|-4(x8)-8(x8)-6(x8)-9(x8)--4(x8)-8(x8)-6(x8)-9(x8)-|
D|-4-----8-----6-----9------4-----8-----6-----9-----|
   [Open::::::::::::::::::::::::::::::::::::::::::]


Chorus 1:
E|--------------------------------------------------|
B|--------------------------------------------------|
G|-444-888-888-866-666-666--444-888-888-866-666-666-|
D|-444-888-888-866-666-666--444-888-888-866-666-666-|
A|-222-666-666-644-444-444--222-666-666-644-444-444-|
D|--------------------------------------------------|


Verse 2:
E|--------------------------------------------------|
B|--------------------------------------------------|
G|--------------------------------------------------|
D|-4-----8-----6-----9------4-----8-----6-----9-----|
A|-4(x8)-8(x8)-6(x8)-9(x8)--4(x8)-8(x8)-6(x8)-9(x8)-|
D|-4-----8-----6-----9------4-----8-----6-----9-----|
   [Palm-muted::::::::::::::::::::::::::::::::::::] 

E|------------------------------------------------|
B|------------------------------------------------|
G|------------------------------------------------|
D|-444-488-888-866-699-999--444-488-888-866-69-9\-|
A|-444-488-888-866-699-999--444-488-888-866-69-9\-|
D|-444-488-888-866-699-999--444-488-888-866-69-9\-|


Chorus 2:
E|--------------------------------------------------|
B|--------------------------------------------------|
G|-444-888-888-866-666-666--444-888-888-866-666-666-|
D|-444-888-888-866-666-666--444-888-888-866-666-666-|
A|-222-666-666-644-444-444--222-666-666-644-444-444-|
D|--------------------------------------------------|

E|----------------------------------------|
B|----------------------------------------|
G|-4-----8-----6-------4-----8-----6------|
D|-4(x8)-8(x8)-6(x16)--4(x8)-8(x8)-6(x16)-|
A|-2-----6-----4-------2-----6-----4------|
D|----------------------------------------|


Bridge:
E|--------------------------------------------|
B|--------------------------------------------|
G|-----------888-666-444-333------------------|
D|-4~~~~~~~~-888-666-444-333-66-8-6-4~~~~~~~~-|
A|-4~~~~~~~~-666-444-222-111-66-8-6-4~~~~~~~~-|
D|-4~~~~~~~~-----------------66-8-6-4~~~~~~~~-|
   [8 quick                          [8 quick
    counts]                           counts]

E|------------------------------------------------------------------------|
B|------------------------------------------------------------------------|
G|-888-666-444-333---------888-666-444-333---------888-666-444-333--------|
D|-888-666-444-333-66-8-6--888-666-444-333-66-8-6--888-666-444-333-66-8-6-|
A|-666-444-222-111-66-8-6--666-444-222-111-66-8-6--666-444-222-111-66-8-6-|
D|-----------------66-8-6------------------66-8-6------------------66-8-6-|


Post-Bridge:
E|------------------------------------------------------|
B|------------------------------------------------------|
G|------------------------------------------------------|
D|------------------------------------------------------|
A|-222-266-666-644-444-4h6p4--222-266-666-644-444-4h6p4-|
D|------------------------------------------------------|
   [Palm-muted::::::::][Open] [Palm-muted::::::::][Open]

E|------------------------------------------------13/14-14-14-14-|
B|---------------------------------------------------------------|
G|----------------------------------------6-6-6-6----------------|
D|----------------------------------------6-6-6-6----------------|
A|-222-266-666-644-444-4h6p4--222-266-666-4-4-4-4----------------|
D|---------------------------------------------------------------|
   [Open:::::::::::::::::::::::::::::::::::::::::::::::::::::::::]


Chorus 3:
E|--------------------------------------------------|
B|--------------------------------------------------|
G|-444-888-888-866-666-666--444-888-888-866-666-666-|
D|-444-888-888-866-666-666--444-888-888-866-666-666-|
A|-222-666-666-644-444-444--222-666-666-644-444-444-|
D|--------------------------------------------------|

E|----------------------------------------|
B|----------------------------------------|
G|-4-----8-----6-------4-----8-----6------|
D|-4(x8)-8(x8)-6(x16)--4(x8)-8(x8)-6(x16)-|
A|-2-----6-----4-------2-----6-----4------|
D|----------------------------------------|


Outro:
E|---------------------------|
B|---------------------------|
G|-888-666-444-333-----------|
D|-888-666-444-333-66-8-6-4\-|
A|-666-444-222-111-66-8-6-4\-|
D|-----------------66-8-6-4\-|
            
Tabs too difficult? Try these video lessons and learn fast.




comments powered by Disqus
↑ Back to top | Tablatures and chords are parodies/interpretations of the original songs. You may use it for private study, scholarship, research or language learning purposes only