» » »

Just A Song I Thought Of One Day Tabs (ver.1)

Artists:  A B C D E F G H I J K L M N O P Q R S T U V W X Y Z # 

Just A Song I Thought Of One Day Tabs (ver.1)

Zero Gravity
Rating:
0/5 (0 votes)
Tabs too difficult? Try these video lessons and learn fast.
                ok heres my song i though of one day sitting in my room with my les paul
i have no name 4 it so i give it to u all 4 use in your own songs
:)

--------------------------|
--------------------------|
--------------------------|
------5--x--5--x--5--7--7-|
------5--x--5--x--5--7--7-|
------5--x--5--x--5--7--7-|

--------------------------|
--------------------------|
--------------------------|
------5--x--5--x--5--9--7-|
------5--x--5--x--5--9--7-|
------5--x--5--x--5--9--7-|

--------------------------|
--------------------------|
--------------------------|
------5--x--5--x--5--3--5-|
------5--x--5--x--5--3--5-|
------5--x--5--x--5--3--5-|

--------------------------|
--------------------------|
--------------------------|
------5--x--5--x--5-------|
------5--x--5--x--5-------|
------5--x--5--x--5-------|

--------------------------|
-------7b--7--9--7--------|
-------7b--7--9--7--------|
--------------------------|
--------------------------|
--------------------------|

---------------------------|
---------------------------|
--------6-----6------------|
--------7-----7------------|
--------7-----7------------|
--------5-----5------------|

---------------------------|
---------------------------|
--------8-----8------------|
--------9-----9------------|
--------9-----9------------|
--------7-----7------------|

i was just goffing off so make the rest of it if you want have fun with it!
            
Tabs too difficult? Try these video lessons and learn fast.


comments powered by Disqus
↑ Back to top | Tablatures and chords are parodies/interpretations of the original songs. You may use it for private study, scholarship, research or language learning purposes only