>
 >
Dont Go Away 1

Dont Go Away 1 Chords

Zombies - Dont Go Away 1 chords, tabs, tablatures, lyrics

Guitar lessons | Add/correct | Request | Top 50 tabs Artists:  A B C D E F G H I J K L M N O P Q R S T U V W X Y Z 0-9

Dont Go Away 1 Chords – Zombies

CD, Sheet music, Poster

Do you like Dont Go Away 1? Share with your friends now
ChordsChords v2Ukulele

Tuning:Standard

          D              D/A    D                D/A           
e|-----|-------2-------------|--------2-------------|
B|-----|----3----3----3------|-----3----3----3------|
G|-----|------------2---2----|-------------2---2----|
D|-----|--0------------------|--0-------------------|
A|--0--|------------------0--|-------------------0--|
E|-----|---------------------|----------------------|

    D              D/A   D                 D/A
e|-------2-------------|--------2-------------|
B|----3----3----3------|-----3----3----3------|
G|------------2---2----|-------------2---2----|
D|--0------------------|--0-------------------|
A|------------------0--|-------------------0--|
E|---------------------|----------------------|

 D         D9                     G                 A7
Day comes, sun comes, climbs the other side of the hill,
           D            D9                G           A7
Ummmm, daylight and the new life comes climbing up a hill,
F#               G                    A    A7       D
   Don't go a - way, don't take your love with the night,
F#               G                    A    Asus2  A
   Don't go a - way, don't take your love please stay!


   D       D9     D       D9
e|----------0---|----------0---|
B|------3---1---|------3---1---|
G|----2-----2---|----2-----3---|
D|--0-------0---|--0-------0---|
A|--------------|--------------|
E|--------------|--------------|

  
G                          C        A          F           D
  Through the night I can feel you love me, I know, I be -lieve it,
G                     C                 A             F           D
  I want to hold you tight, while the warmth of the night sur - rounds us,
G                      C          A
  I want the night to last for - ever,
    F         D     A                  C            A               C
I know you'll go...    when the first light of the day comes into sight,
       F       G
You'll go from me----!


    D      D9      D      D9
e|----------0---|----------0---|
B|------3---1---|------3---1---|
G|----2-----2---|----2-----3---|
D|--0-------0---|--0-------0---|
A|--------------|--------------|
E|--------------|--------------|

  
G                            C         A       F      D
  Through the night you'll tempt my feelings, hold me to you,
G                     C             A            F       D
  I know you love me real, but to - day I can't feel so sure,
G                      C          A
  I want the night to last for - ever,
    F         D    A                 C            A               C
I know you'll go...  when the first light of the day comes into sight,
       F       G
You'll go from me----!
  
          D              D/A    D                D/A           
e|-----|-------2-------------|--------2-------------|
B|-----|----3----3----3------|-----3----3----3------|
G|-----|------------2---2----|-------------2---2----|
D|-----|--0------------------|--0-------------------|
A|--0--|------------------0--|-------------------0--|
E|-----|---------------------|----------------------|


 D         D9                     G                 A7
Day comes, sun comes, climbs the other side of the hill,
           D            D9                G           A7
Ummmm, daylight and the new life comes climbing up a hill,
F#               G                    A    A7       D
   Don't go a - way, don't take your love with the night,
F#               G                    A    Asus2  A
   Don't go a - way, don't take your love please stay!

   D      D9     
e|----------0---|
B|------3---1---|
G|----2-----2---|
D|--0-------0---|
A|--------------|
E|--------------|


D      D9      D         D9      D    D9      D        D9      D
                   Don't go a - way,             don't go a - way------!
(Don't go a - way-------,       don't go a - way------!)
        
************************************

D          =  xx0232
D/A        =  x00232
D9         =  xx0210
G          =  320033
A7         =  x02020
F#         =  244322
A          =  x02220
Asus2      =  x02200
C          =  x32010
F          =  133211





Comments


Popular Zombies tabs & chords
A Rose For Emily Chords
A Rose For Emily 1 Chords
I Must Move Chords
Kind Of Girl Chords
Tell Her No 3 Chords
Way I Feel Inside 2 Chords
I Know She Will Tabs
Tell Her No Tabs
Brief Candles Ukulele
Will You Still Love Me Tomorrow Ukulele


Song lyrics



↑ Back to top | Tablatures and chords are parodies/interpretations of the original songs. You may use it for private study, scholarship, research or language learning purposes only
© 2014 AZChords.com Contact us | Privacy policy | DMCA | Add/correct tabs | Request tabs | Top 50 tabs