>
 >
Leave Me Be 1

Leave Me Be 1 Chords

Zombies - Leave Me Be 1 chords, tabs, tablatures, lyrics

Guitar lessons | Add/correct | Request | Top 50 tabs Artists:  A B C D E F G H I J K L M N O P Q R S T U V W X Y Z 0-9

Leave Me Be 1 Chords – Zombies

CD, Sheet music, Poster

Do you like Leave Me Be 1? Share with your friends now
Bass TabsChordsChords v2Ukulele
Band: The Zombies

Tuning:Standard

Another great Zombies track from 1965

   Em             C            Fmaj7            G
|  /  /  /  /  |  /  /  /  /  |  /  /  /  /  |  /  /  /  /  |


Em                  C            Fmaj7                     G
If it seems that...I'm too quiet,      that's 'cause I'm missing her,
    Em                C            Fmaj7                    G
My mind tells me I...have to fight,      but I can't help missing her!


                     F        You better leave me alone,
e|---------------|---1------|
B|---------------|---1------|
G|---0-----------|---2------|
D|-------0---2---|---3------|
A|---------------|---3------|
E|---------------|----------|


                   Cmaj7      You better leave me alone,
e|---------------|---0------|
B|---------------|---0------|
G|-------2-------|---0------|
D|-----------3---|---2------|
A|---3-----------|---3------|
E|---------------|----------|

        Em                 C                Fmaj7         G
Until...I can...think a - bout her without feeling sorry for myself,

Em                      C                 G
    You better leave me be, till I don't need----- her anymore,
Em                 C               D                D7
    I don't wanna meet again un - til I'm sure I'm over her!


         Em            C             Fmaj7                G
By my - self, feeling tired & wanting,    is not like I thought it would be,
 Em                 C              Fmaj7                     G
Love just cannot...end at parting,       my world's dropped from under me!



                     F        You better leave me alone,
e|---------------|---1------|
B|---------------|---1------|
G|---0-----------|---2------|
D|-------0---2---|---3------|
A|---------------|---3------|
E|---------------|----------|


                   Cmaj7      You better leave me alone,
e|---------------|---0------|
B|---------------|---0------|
G|-------2-------|---0------|
D|-----------3---|---2------|
A|---3-----------|---3------|
E|---------------|----------|

        Em                 C                Fmaj7         G
Until...I can...think a - bout her without feeling sorry for myself,

Em                      C                 G
    You better leave me be, till I don't need----- her anymore,
Em                 C               D                D7
    I don't wanna meet again un - til I'm sure I'm over her!


     Em              C                    Fmaj7            G
e|---0---3--0--3--|--0---3--0--3--------|---------------|-----------------|
B|---0------------|--1------------------|--1--/3---/5---|--0----------0---|
G|---0------------|--0------------------|--2--/4---/5---|--0--------0-----|
D|---2------------|--2------------5-/7--|---------------|---------0-------|
A|---2------------|--3------------------|---------------|-------2---------|
E|---0------------|---------------------|---------------|-----3-----------|


     Em              C                    Fmaj7            G
e|---0---3--0--3--|--0---3--0--3--------|---------------|-----------------|
B|---0------------|--1------------------|--1--/3---/5---|--0--------------|
G|---0------------|--0------------------|--2--/4---/5---|--0--------------|
D|---2------------|--2------------5-/7--|---------------|-----------------|
A|---2------------|--3------------------|---------------|-----------------|
E|---0------------|---------------------|---------------|-----------------|


                     F        Oh - oh, oh - oh, oh - woh!
e|---------------|---1------|
B|---------------|---1------|
G|---0-----------|---2------|
D|-------0---2---|---3------|
A|---------------|---3------|
E|---------------|----------|


                   Cmaj7      Oh - oh, oh - oh, oh - woh!     Am
e|---------------|---0------|
B|---------------|---0------|
G|-------2-------|---0------|
D|-----------3---|---2------|
A|---3-----------|---3------|
E|---------------|----------|


************************************
Em      =  002200
C       =  x32010
Fmaj7   =  103210
G       =  320033
D       =  xx0232
D7      =  xx0212





Comments


Popular Zombies tabs & chords
Time Of The Season Bass Tabs
Brief Candles 1 Chords
How We Were Before Chords
Just Out Of Reach Chords
Tell Her No 1 Chords
Way I Feel Inside Chords
A Love That Never Was Intro Tabs
Friends Of Mine Tabs
Smokey Day Ukulele
Whenever Youre Ready Ukulele


Song lyrics



↑ Back to top | Tablatures and chords are parodies/interpretations of the original songs. You may use it for private study, scholarship, research or language learning purposes only
© 2014 AZChords.com Contact us | Privacy policy | DMCA | Add/correct tabs | Request tabs | Top 50 tabs