» » »

Irgendeinisch Fingt Ds Glck Eim Chords (ver.1)

Artists:  A B C D E F G H I J K L M N O P Q R S T U V W X Y Z # 

Irgendeinisch Fingt Ds Glck Eim Chords (ver.1)

Zuri West
Rating:
0/5 (0 votes)

Tabs too difficult? Try these video lessons and learn fast.
                Irgendeinisch fingt ds Glueck eim

Das ganze Lied hat eigentlich (wie einfallslos) nur vier Akkorde:

E  E  B  B  F#m  F#m  F#m  A

Intro: 

e--------------------------------------|
B--------------------------------------|
G--------------------------------------|
D--------------------------------------|
A--------------------------------0-0-0-|
E-7-12-9-7--2-4-2-2---2-4-2-2----------|

Verse 1:

E  E  B  B  F#m  F#m  F#m  A

Irgendwenn chunnt me immer a
Irgendeinisch geit's gaeng wieder witer
Du chasch no so toeiff ir Sosse schtah
Irgendwenn chunnt me immer a
Irgendwo geit e Tuere uf
Viellaech nume ganz e schmale Schpaut
oepper schteit uf irgendoeppis druf
U irgendwo geit e Tuere uf


Chorus:
Irgendeinisch fingt ds Glueck eim
Irgendwo uf em e Parkplatz
Ploetzlech schmoeckt's wieder wie daheim
Irgendeinisch fingt ds Glueck eim

Solo: 
e--------------------------------------------------------------------------|
B---5--5----4--4----2--2----2------------5---5----4--4----2--2----2--------|
G4-4--4--4-4--4--4-4--4--4-4--1s2s4s6-1-1---4--4-4--4--4-4--4--4-4--1s2s4s6|
D--------------------------------------------------------------------------|
A--------------------------------------------------------------------------|
E--------------------------------------------------------------------------|

Verse 2:

Irgendwenn weisch waer d'bisch
Irgendwenn weisch genau wo de haere ghoersch
oepper schteut es zwoeits Tassli uf e Tisch
Irgendwenn weisch waer d'bisch

Chorus:

Chorus: (waehrend Solo und Intro laeuft)
            
Tabs too difficult? Try these video lessons and learn fast.




comments powered by Disqus
↑ Back to top | Tablatures and chords are parodies/interpretations of the original songs. You may use it for private study, scholarship, research or language learning purposes only