>
 >
Tush 3

Tush 3 Guitar Tabs

Zz Top - Tush 3 chords, tabs, tablatures, lyrics

Guitar lessons | Add/correct | Request | Top 50 tabs Artists:  A B C D E F G H I J K L M N O P Q R S T U V W X Y Z 0-9

Tush 3 Guitar Tabs – Zz Top

CD, Sheet music, Poster

Do you like Tush 3? Share with your friends now
Bass TabsBass Tabs v2Bass Tabs v3Bass Tabs v4ChordsTabsTabs v2Tabs v3Tabs v4Tabs v5Tabs v6Ukulele
Tuning:Open G6 Low to High (DADGBE)

I could not find any tab this close so leave comments and rate thanks.
And leave corrections if you please.


                             TUSH

E|--------------------------------------------------------------------------|
B|--------------------------------------------------------------------------|
G|------5---5-3-----5---5-3--------5---5-3----5---5-3-----------------------|
D|------5---5-3-----5---5-3--------5---5-3----5---5-3-----------------------|
G|--0-0---0-------0---0----------0---0------0---0-------0-------------------|
D|---------------------------3/5--------------------------3/4---------------|
  Verse B
E|--------------------------------------------------------------------------|
B|--------------------------------------------------------------------------|
G|----5---5-3-----------5---5-3-------5---5-3------5---5-3------------------|
D|----5---5-3-----------5---5-3-------5---5-3------5---5-3------------------|
G|--0---0------0------0---0---------0---0--------0---0----------------------|
D|---------------3/5--------------5------------5----------------------------|

E|--------------------------------------------------------------------------|
B|--------------------------------------------------------------------------|
G|------5---5---5---5-5------------------5---5-3----5---5-3--5--------------|
D|--5-5-7-7-8-5-7-7-5-5------------------5---5-3----5---5-3--5-0------------|
G|--5-5-5-5-5-5-5-5-5-5----------------0---0------0---0---------------------|
D|-----------------------2-2-3-3-4-4-5--------------------------------------|

E|--------------------------------------------------------------------------|
B|--------------------------------------------------------------------------|
G|--------------------------------------------------------------------------|
D|--7-7-9---10---9---5-5-7-5-----7--------2---3---2---0---------------------|
G|--7---7-7-7--7-7-0-5-5-5-5-5-5-5-----0--0-0-0-0-0-0-0-5-6-7---------------|
D|---------------------------------3/5--------------------------------------|
  Solo (use a slide)
E|--------------------------------------------------------------------------|
B|--/12----------------12\--------------/12-------12----------12\-----------|
G|------12-12--12--12--12\--12----12-----------12----12\10-10---------------|
D|--------------------------12-12----12-----12------------------------------|
G|--------------------------------------------------------------------------|
D|--------------------------------------------------------------------------|

E|--------------------------------------------------------------------------|
B|-------5-----/5---------------------------/12-----------------------------|
G|---/5----/5--/5--5--\3-5--/4-/4\0--/12----/12-12\10/----\10-X-------------|
D|---/5----/5------5-----5---------------12------------12-------------------|
G|--------------------------------------------------------------------------|
D|--------------------------------------------------------------------------|

E|---------------------------------------------------------------------------|
B|-----12-12-12-12-12-----12-12-12\-----12-----12-12-12\-----12-12\10--------|
G|----------------------------------------------------------------------12---|
D|-/12----------------/12-----------/12----/12-----------/12----------12--12-|
G|---------------------------------------------------------------------------|
D|---------------------------------------------------------------------------|

E|---------------------------------------------------------------------------|
B|-10/12\-----/5--5--5--6--------5--5----------------------------------------|
G|-10/12\-----/5-----------6\5---------5\3\0--12-12-12\10----/12/12----------|
D|-------------------------6\5-0--------------------------12--------12\10----|
G|------------------------------------------------------------------------12-|
D|---------------------------------------------------------------------------|

E|----------------------15-15-15\13----/19--------15------------------------|
B|---------11/12----/15-------------15-----\17-15----\13/12/12--------------|
G|---12----------12--------------------------------------------12\10--------|
D|------12-----------------------------------------------------------12-----|
G|--------------------------------------------------------------------------|
D|--------------------------------------------------------------------------|

E|----------------------------------------------|
B|-12-12-12\10----------------------------------|  Go back to verse B
G|-12-12-12\10---12----------12-----------------|  then play outro.
D|-------------12--12\10\9-9--------------------|
G|----------------------------------------------|
D|----------------------------------------------|
 Outro Solo
E|--------------------------------------------------------------------------|
B|--/16------8/X/-----------12/15-----------/11/13-0--------/12-------------|
G|-----\14\X/8/X/--12-12-12-----------12-12--------0--12-12-----------------|
D|--------------------------------\9------------------12--------10----------|
G|--------------------------------------------------------------------------|
D|--------------------------------------------------------------------------|

E|--------------------------------------------------------------------------|
B|---------/12----------------5---------/5-------------/5-------------------|
G|---/12---------/-12----/12\-5----/5--------/5---/5-0----0-/5--3/0---------|
D|------\10----10/-12--10/12\----5----5----5----5---------------------------|
G|--------------------------------------------------------------------------|
D|--------------------------------------------------------------------------|

E|--------------------------------------------------------------------------|
B|--------------------12\11/12-------/12----------------------/6--/7\5------|
G|--12----12----12-------------12-----------12--12\---7---7-----------------|
D|-----12----12----12-------------12-----12--------/7---7---7---------------|
G|--------------------------------------------------------------------------|
D|--------------------------------------------------------------------------|
                                                                        END
E|--------------------------------20-16--------------------------------------|
B|----------------------------/20-------15-/13\11----------------------------|
G|---\5---5---/3---0------------------------------12-------/12---10----------|
D|------5---5----------------------------------------12----------------------|
G|---------------------------------------------------------------------------|
D|---------------------------------------------------------------------------|

     ENJOY





Comments


Popular Zz Top tabs & chords
Lowrider 2 Bass Tabs
Thug 2 Bass Tabs
Blue Jean Blues 1 Tabs
Burger Man 2 Tabs
Gimme All Your Lovin' Tabs
I Got The Six Tabs
La Grange 1 Tabs
Mexican Blackbird Tabs
She's Just Killing Me Tabs
A Fool For Your Stockings Ukulele


Song lyrics



↑ Back to top | Tablatures and chords are parodies/interpretations of the original songs. You may use it for private study, scholarship, research or language learning purposes only
© 2014 AZChords.com Contact us | Privacy policy | DMCA | Add/correct tabs | Request tabs | Top 50 tabs