» » »

Excursions Bass tabs (ver.2)

Artists:  A B C D E F G H I J K L M N O P Q R S T U V W X Y Z # 

Excursions Bass tabs (ver.2)

A Tribe Called Quest
Rating:
0/5 (0 votes)
Tabs too difficult? Try these video lessons and learn fast.
                I think this song's played on a five string upright bass. But if you're like me and just 
a four string electric bass, you put it in drop D and play it like this:

G|---------------------------------------------------------|
D|-----1-----1------------1-----1------------2-----2-------|
A|---1-----1-------1----1-----1-------1----2-----2------2--|
D|-1-----1-----x-1----1-----1-----x1-----2-----2-----x-2---|

G|--------------------|
D|-----2----2-------*-|
A|---2----2-------2-*-|
D|-2----2-----x-2-----|

And if you have a five string, play it like this:

G|-------------------------------------------------------|
D|-------------------------------------------------------|
A|-----6-----6-----------6-----6------------7-----7------|
E|---6-----6-------6---6-----6-------6----7-----7------7-|  etc.
B|-4-----4-----x-4---4-----4-----x-4----5-----5-----x5---|

Well, that's it. It really sounds much better on an upright, but an electric will do. 
is played through the whole song, but it's better if you ass some things to it, just be 
and enjoy.
~Love, Dallas~
            
Tabs too difficult? Try these video lessons and learn fast.


comments powered by Disqus
↑ Back to top | Tablatures and chords are parodies/interpretations of the original songs. You may use it for private study, scholarship, research or language learning purposes only