» » »

Sorrow Tabs (ver.2)

Artists:  A B C D E F G H I J K L M N O P Q R S T U V W X Y Z # 

Sorrow Tabs (ver.2)

Bad Religion
Rating:
0/5 (0 votes)

Tabs too difficult? Try these video lessons and learn fast.
                

INTRO:

Guitar 1
e:--12--|
B:--12--|
G:--12--|
D:------|
A:------|
E:------|

   Em     C       D       G           G
Guitar 1
e:-----------------------------------|---------3--------------------------|
B:-----------------------------------|---------3--------------------------|
G:-----------------------------------|---------4--------------------------|
D:-----------------------------------|---------5--------------------------|
A:-----------------------------------|------------------------------------|
E:-----------------------------------|------------------------------------|

Guitar 2
e:-----------------------------------|------------------------------------|
B:-----------------------------------|------------------------------------|
G:-----------------------------------|------------------------------------|
D:---------5-5-5-5-7-7-7-7-----------|------------------------------------|
A:-2-2-2-2-3-3-3-3-5-5-5-5-5-5-5-5---|-5-5-5-5-5-5-5-5-5-5-5-5-5-5-5-5----|
E:-0-0-0-0-----------------3-3-3-3---|-3-3-3-3-3-3-3-3-3-3-3-3-3-3-3-3----|
                                      Father Cn you hear me?

    G       C       Em     D            D
Guitar 1
e:-----------------------------------|-2----------------------------------|
B:-----------------------------------|-3----------------------------------|
G:-----------------------------------|-2----------------------------------|
D:-----------------------------------|------------------------------------|
A:-----------------------------------|------------------------------------|
E:-----------------------------------|------------------------------------|

Guitar 2
e:-----------------------------------|------------------------------------|
B:-----------------------------------|------------------------------------|
G:-----------------------------------|------------------------------------|
D:----------5-5-5-5-9-9-9-7-7-7-7-7--|-7-7-7-7-7-7-7-7-7-7-7-7-7-7-7-7----|
A:--5-5-5-5-3-3-3-3-7-7-7-5-5-5-5-5--|-5-5-5-5-5-5-5-5-5-5-5-5-5-5-5-5----|
E:--3-3-3-3------------------------------|--------------------------------|
                              How have I let you down?         

    G      C       D        Em        Em
Guitar 1
e:-----------------------------------|---------12-------------------------|
B:-----------------------------------|---------12-------------------------|
G:-----------------------------------|---------12-------------------------|
D:-----------------------------------|------------------------------------|
A:-----------------------------------|------------------------------------|
E:-----------------------------------|------------------------------------|

Guitar 2
e:-----------------------------------|------------------------------------|
B:-----------------------------------|------------------------------------|
G:-----------------------------------|------------------------------------|
D:----------5-5-5-5-7-7-7-7-9-9-9-9--|-5-5-5-5-5-5-5-5-5-5-5-5-5-5-5-5----|
A:--5-5-5-5-3-3-3-3-5-5-5-5-7-7-7-7--|-7-7-7-7-7-7-7-7-7-7-7-7-7-7-7-7----|
E:--3-3-3-3--------------------------|------------------------------------|   
       I curse the day that     I was born
   
   Em       C      D       G          G   
Guitar 1
e:-----------------------------------|------------------------------------|
B:-----------------------------------|------------------------------------|
G:-----------------------------------|------------------------------------|
D:-----------------------------------|-5-5-5-5-5-5-5-5-5-5-5-5-5-5-5-5----|
A:-----------------------------------|-5-5-5-5-5-5-5-5-5-5-5-5-5-5-5-5----|
E:-----------------------------------|-3-3-3-3-3-3-3-3-3-3-3-3-3-3-2-2----|

Guitar 2
e:-----------------------------------|------------------------------------|
B:-----------------------------------|------------------------------------|
G:-----------------------------------|------------------------------------|
D:--9-9-9-9-5-5-5-5-7-7-7-7----------|-5-5-5-5-5-5-5-5-5-5-5-5-5-5-5-5----|
A:--7-7-7-7-3-3-3-3-5-5-5-5-5-5-5-5--|-5-5-5-5-5-5-5-5-5-5-5-5-5-5-5-5----|
E:--------------------------3-3-3-3--|-3-3-3-3-3-3-3-3-3-3-3-3-3-3-2-2----|   
           And all the sorrow in this world

Em          C           D        G           
Let me take you to the hurting ground
G              C        Em       D          
Where all good men are trampled down
G        C                D            Em
Just to settle a bet that could not be won
Em          C        D            G 
Between a prideful father and his son

Will you guide me now, for I can't see
A reason for the suffering and this long misery
What if every living soul could be upright and strong
Well, then I do imagine...

           Em C  G     
There will be sorrow
               Em  C   G
Yeah there will be sorrow
               Em  C  G   Em  D      Em
And there will be sorrow, no more

When all soldiers lay their weapons down
Or when all kings and all queens relinquish their crowns
Or when the only true messiah rescues us from ourselves
It's easy to imagine...
 
There will be sorrow
Yeah there will be sorrow
And there will be sorrow, no more

Solo with verse chords
            
Tabs too difficult? Try these video lessons and learn fast.




comments powered by Disqus
↑ Back to top | Tablatures and chords are parodies/interpretations of the original songs. You may use it for private study, scholarship, research or language learning purposes only