» » »

Knocking On Heavens Door Bass tabs (ver.3)

Artists:  A B C D E F G H I J K L M N O P Q R S T U V W X Y Z # 

Knocking On Heavens Door Bass tabs (ver.3)

Bob Dylan
Rating:
0/5 (0 votes)

Tabs too difficult? Try these video lessons and learn fast.
                -------------------------------------------------------------------------------
			KNOCKING ON HEAVENS DOOR  - BOB DYLAN
-------------------------------------------------------------------------------


Tuning: Standard

INTRO NO BASS

VERSE
G |---------------------------------------------------------------------|
D |---------------------------------------------------------------------|
A |------5---5------------------------------5---5-3---3-3-3-0-3-3-0-3---|
E |-3--3-------5--5-5-5-5-5-5-5-5------3--3-----------------------------|

CHORUS
G |---------------------------------------------------------------------|
D |----------------7--5-------------------------------------------------|
A |------5---5-----------7--5--3------------5---5-3---3-3-3-0-3-3-0-3---|
E |-3--3-------5-5---------------------3--3-----------------------------| X2


THATS ALL !
            
Tabs too difficult? Try these video lessons and learn fast.




comments powered by Disqus
↑ Back to top | Tablatures and chords are parodies/interpretations of the original songs. You may use it for private study, scholarship, research or language learning purposes only