» » »

Slave Driver Bass tabs (ver.3)

Artists:  A B C D E F G H I J K L M N O P Q R S T U V W X Y Z # 

Slave Driver Bass tabs (ver.3)

Bob Marley
Rating:
0/5 (0 votes)

Tabs too difficult? Try these video lessons and learn fast.
                                     BOB MARLEY and THE WAILERS

                            SLAVE DRIVER
                     

INTRO: 0:00 to 00:15

G ||---------------------------||
D ||---------------------------||
A ||--0--5---9-7-5-5-5-2-0-----|| x4            
E ||---------------------------|| 

1st CHORUS and VSE 1: 00:16 to 01:13 

 
G ||--------------------------------------------------------||
D ||--9-9-7-9--------9-9----------9-9-7-9--------9-9--------||
A ||----------9----9-----9-5-9------------9----9-----9-5----|| x4
E ||--------------------------------------------------------||


1st BREAK 01:14 to 01:26 

G ||---------------------------||
D ||---------------------------||
A ||--0-5---9-7-5-5-5-2-0------|| x4             
E ||---------------------------|| 

3rd CHORUS and VSE 2: 01:27 to 02:09
 
G ||--------------------------------------------------------||
D ||--9-9-7-9--------9-9----------9-9-7-9--------9-9--------||
A ||----------9----9-----9-5-9------------9----9-----9-5----|| x4
E ||--------------------------------------------------------||

2nd BREAK 02:10 to 02:23 

G ||---------------------------||
D ||---------------------------||
A ||--0-5---9-7-5-5-5-2-0-2----|| x4             
E ||---------------------------||

4th CHORUS and FADE OUT 2 02:24 to 02:54
 
G ||--------------------------------------------------------||
D ||--9-9-7-9--------9-9----------9-9-7-9--------9-9--------||
A ||----------9----9-----9-5-9------------9----9-----9-5----|| x4
E ||--------------------------------------------------------||
            
Tabs too difficult? Try these video lessons and learn fast.




comments powered by Disqus
↑ Back to top | Tablatures and chords are parodies/interpretations of the original songs. You may use it for private study, scholarship, research or language learning purposes only