» » »

A Spindle A Darkness A Fever And A Necklace Tabs (ver.1)

Artists:  A B C D E F G H I J K L M N O P Q R S T U V W X Y Z # 

A Spindle A Darkness A Fever And A Necklace Tabs (ver.1)

Bright Eyes
Rating:
0/5 (0 votes)

Tabs too difficult? Try these video lessons and learn fast.
                e|-----------------|-------------------|---3---------3---|-----------|-----------|
B||-----1------1---|----1---------1----|-----------------|-----------|-----------|
G||.-----0------0--|-------------------|-----0--------0--|---0----0--|---3-----3-|
D||.--2------2-----|--0---0-----0---0--|--0--------0-----|--2-2--2-2-|--4-4---4-4|
A||-0------0-------|-------------------|-----------------|-3----3----|-------4---|
E|-----------------|-2---------2-------|3--------3-------|-----------|-2---------|

                                      Rpt:3 or 4X
e|---------------|---0------0-------0-------|----------------|---2----2--|
B|---------------|-------------------------||-------5-----5--|----2----2-|
G|--2-----2------|----1-------1------1----.||--------5-----5-|--2----2---|
D|-1-1---1-1-----|--2---2-2-----2--2---2--.||------5-----5---|-0----0----|
A|2-----2--------|-------------------------||----7------7----|-----------|
E|---------------|0-------------------------|----------------|-----------|

                                                                                Rpt:1X
e|----------|----------------|-----0------0--|---2-----2--|--3----3--|-------------|
B|----------|-----1----------||--------------|------------|----------|--1---------||
G|--1----1--|------0---------||.----0----0-0-|--2-2---2-2-|---0----0-|---0-------.||
D|-0-0--0-0-|---2------2-----||.--2-----2----|-0-----0----|-0----0---|-2---2-----.||
A|2----2----|-3------3---3-2-||--0-----------|------------|----------|3---3--3-2--||
E|----------|----------------|---------------|------------|3----3----|-------------|


e|----------------|------------2---|---3----3-----3-------- |--------------------|
B|-----1----------|---1---------3--|----0------------------S||--------3h4p3p3----|
G|-------0-----0--|----0-----2-----|----------0-----0------O||.------------------|
D|---2--------2-2-|--0-----0-------|--0----0-----0---------L||.------------------|
A|-0--------3-----|-2--------------|-----------------------O||-2-2-2-2-----------|
E|----------------|----------------|-3----3-----3------3--- |--3-3-3-3-----------|

                                                      Rpt:1X
e|------------------|-------------------|------------------|--0------0-------0-----|
B|----0----2h3p2p0--|-------------------|-----------------||-----------------------|
G|---2--------------|------1--------1---|----4-----2-----.||---1-------1-------1---|
D|--1---------------|--------0--------0-|--3--3---1-1----.||-2---2--2----2-2-----2-|
A|-2---2------------|---4---------4-----|-4------2--------||-----------------------|
E|------------------|-2---------2-------|------------------|0----------------------|
            
Tabs too difficult? Try these video lessons and learn fast.


comments powered by Disqus
↑ Back to top | Tablatures and chords are parodies/interpretations of the original songs. You may use it for private study, scholarship, research or language learning purposes only