» » »

Addicted To Vaginal Skin Bass tabs (ver.1)

Artists:  A B C D E F G H I J K L M N O P Q R S T U V W X Y Z # 

Addicted To Vaginal Skin Bass tabs (ver.1)

Cannibal Corpse
Rating:
0/5 (0 votes)

Tabs too difficult? Try these video lessons and learn fast.
                Band:  Cannibal Corpse


Legend:
/  - slide up to    \  - slide down to
h  - hammer on


Tuning: Eb


 Riff 1
|---------------------|---------------------|
|-2---1-----2---1-----|-2---------2---------|
|---1---3-----1---2---|---1-1-3-----1-1-2---|
|---------2---------1-|---------2---------1-|


 Riff 2
|-----------------------------------------------------------------|
|-----------------------------------------------------------------|
|-----------------------------------------------------------------|
|-000-000-000-000-4-5-7-0-3-4-6-0-2-3-5-0-1-2-4-2-000-000-000-000-|


 Riff 3
|-----------------------------------------------------------|
|-----------------------------------------------------------|
|-----------------------------------------------------------|
|-1-1-1-1-4-1-1-1-1-1-1-1-4-1-1-1-1-1-1-1-4-1-1-1-1-0-0-0-0-|


-------------------------------------------------------------------|
-------------------------------------------------------------------|
-------------------------------------------------------------------|
-1-1-1-1-4-1-1-1-1-1-1-1-4-1-1-1-1-1-1-1-4-1-1-1-1-0-0-1-1-0-0-1-1-|


-----------------------------------------------------------|
-----------------------------------------------------------|
-----------------------------------------------------------|
-1-1-1-1-4-1-1-1-1-1-1-1-4-1-1-1-1-1-1-1-4-1-1-1-1-0-0-0-0-|


-------------------------------------------------------------------|
-------------------------------------------------------------------|
-------------------------------------------------------------------|
-1-1-1-1-4-1-1-1-1-1-1-1-4-1-1-1-1-1-1-1-4-1-1-1-1-0-0-1-1-0-0-1-1-|


 Repeat Riff 2


|-----------------------------------------------------------|
|-----------------------------------------------------------|
|-----------------------------------------------------------|
|-----------------------------------------------------------|
|-----------------------------------------------------------|
|-1-1-1-1-4-1-1-1-1-1-1-1-4-1-1-1-1-1-1-1-4-1-1-1-1-0-0-0-0-|

-----------------------------------------------------------------|
-----------------------------------------------------------------|
-----------------------------------------------------------------|
-----------------------------------------------------------------|
-----------------------------------------------------------------|
-1-1-1-1-4-1-1-1-1-1-1-1-4-1-1-1-1-1-1-1-4-1-1-1-1-0-0-1-1-0-0-0-|


 Bass Passage (Same as Riff 4)

 Riff 4
|-------------------------------------|
|--------------------------------8h10-|
|-77777777--------------7h9-7h10------|
|----------66666666-6h9---------------|

 Pause

 Repeat Riff 4
 Repeat Riff 2
 Repeat Riff 3


|-----------------------------------------------------------------|
|-----------------------------------------------------------------|
|-----------------------------------------------------------------|
|-000-000-000-000-4-5-7-0-3-4-6-0-2-3-5-0-1-2-4-2-000-000-000-000-|


|-------------------------------------------------------------------------|
|-------------------------------------------------------------------------|
|-------------------------------------------------------------------------|
|-4-5-7-0-3-4-6-0-2-3-5-0-1-2-4-2-220-0-0-0-220-0-0-0-220-0-0-0-220-0-0-0-|


 Repeat Riff 1

 Riff 5
|-----------------------------------------------------------------|
|---------------------2---1---------------------------------------|
|-3---------------------1---3-----------------3-------------------|
|---2-0-0-0-0-0-0-0-0---------0-0-0-0-0-0-0-0---2-0-0-0-0-0-0-0-0-|


---------------------------------------------------------------------|
-2---1---------------------------------------2---1-------------------|
---1---3-1-1-1-1-1-1-1-1-3---------------------1---3-----------------|
---------------------------2-0-0-0-0-0-0-0-0---------0-0-0-0-0-0-0-0-|


-----------------------------------------------------------------|
---------------------2---1----------------------------------8h10-|
-3---------------------1---3-77777777--------------7h9-7h10------|
---2-0-0-0-0-0-0-0-0------------------66666666-6h9---------------|


 Repeat Riff 4


|-----------------------------------------|
|-----------------------------------------|
|-----------------------------------------|
|-220-0-0-0-220-0-0-0-220-0-0-0-220-0-0-0-|


Solo: Rusay Owen


Solo Rhythm:

Riff 6

|---------------------------------|
|---------------------------------|
|-2-2-------------3-3-----1-1-1-1-|
|-----1-1-0-0-0-0-----2-2---------|


 Riff 7
|------------------------------------------------------------|
|-10h7/6-----------------------------------------------------|
|--------10h7/6-----------------9h7h6------------------------|
|---------------0-0-0-0-0-0-0-0-------10h8h7-6-6-6-6-6-6-6-6-|


|-------------------------------------|---|
|--------------------------------8h10-|---|
|-77777777--------------7h9-7h10------|---|
|----------66666666-6h9---------------|-0-|

End.
            
Tabs too difficult? Try these video lessons and learn fast.




comments powered by Disqus
↑ Back to top | Tablatures and chords are parodies/interpretations of the original songs. You may use it for private study, scholarship, research or language learning purposes only