>
 >
Hammer-Smashed Face

Hammer-Smashed Face Bass Tabs

Cannibal Corpse - Hammer-Smashed Face chords, tabs, tablatures, lyrics

Guitar lessons | Add/correct | Request | Top 50 tabs Artists:  A B C D E F G H I J K L M N O P Q R S T U V W X Y Z 0-9

Hammer-Smashed Face Bass Tabs – Cannibal Corpse

CD, Sheet music, Poster

Do you like Hammer-Smashed Face? Share with your friends now
Bass Tabs
intro x3
A                                B
|--------------------------------|-------|
|--------------------------------|-------|
|--------------------------------|----4-3|
|1-1-1-1/3\1-1-1-1/3\1-1-1-1/3\1-|0-1----|

just gitar for one riff

bass solo (tomb of the mutilated) x4 / bass solo (live) x4
|-----------------|             |----------------|
|-------3---------|             |7-----4---------|
|-2---2---3---3---|             |--6-5-------5-4-|
|---0-------1---0-|             |--------5-4-----|

riff 1 x4
|----------------|
|7-----4---------|
|--6-5-------5-4-|
|--------5-4-----|

riff 2 x4
|----------------|
|5-----2---------|
|--4-3-------3-2-|
|--------3-2-----|

riff 2 x4

riff 3 x8
|-----------|
|-----------|
|-------3---|
|4--5-4-----|

riff 4 x2
|-------------------------------------------------|
|7h10p7-6h9p6-------------5h8p5-4h7p4-------------|
|-------------0-0-5-0-0-4-------------0-0-4-0-0-3-|
|-------------------------------------------------|

riff 5 x2
|--------------------------------------------|
|5h8p8-4h7p4-------------5h8p5-5h8p5---------|
|------------0-0-0-4-----------------0-0-0-4-|
|--------------------------------------------|

riff 4 x2

riff 3 x8

intro A

intro B x 16

riff 2 x4

riff 1 x4

riff 3 x8

riff 4 x2

riff 5 x2

intro A

intro B slowed down x12

riff 4 x2 fast!

riff 5 x2 fast!

riff 3 x8

outro
|----------|
|----------|
|----------|
|1-1-1/3\1-|





Comments


Popular Cannibal Corpse tabs & chords
Hammer Smashed Face 3 Bass Tabs
A Cauldron Of Hate Tabs
Centuries Of Torment Tabs
Entrails Ripped From A Virgins Cunt 1 Tabs
Force Fed Broken Glass Tabs
Frantic Disembowlement Tabs
Overed With Sores Tabs
The Bleeding Tabs
The Spine Splitter 1 Tabs
When Death Replaces Life 1 Tabs


Song lyrics



↑ Back to top | Tablatures and chords are parodies/interpretations of the original songs. You may use it for private study, scholarship, research or language learning purposes only
© 2014 AZChords.com Contact us | Privacy policy | DMCA | Add/correct tabs | Request tabs | Top 50 tabs