» » »

Cleansation Tabs (ver.2)

Artists:  A B C D E F G H I J K L M N O P Q R S T U V W X Y Z # 

Cleansation Tabs (ver.2)

Chimaira
Rating:
4/5 (7 votes)

Tabs too difficult? Try these video lessons and learn fast.
                
Chimaira - Cleansation
Album - The Impossibility of Reason
Tuning - C G C F A D
Effects - Wah, for intro to solo, may want to add some delay when you play solo
Use a lot of Distortion, I think it sounds better with the mids turned up so the 
solo cuts through..

Solo's are back!!!!


P - Palm Mute


This is how I play it.
----------------------

Intro - after some feedback

Riff A
repeat a few times (listen to track)
D----------------------------------------------------
A----------------------------------------------------
F----------------------------------------------------
C----------------------------------------------------
G-0--4--3------0--4--2-----0--4--3------0--4--2------
C-0--4--3------0--4--2-----0--4--3------0--4--2------



In this part of the intro, Palm mute the open C power chord
tremolo pick the open G string, then use pinch harmonic and
vibrato on the 5 to get the squeely sound.  After the 
Pinch harmonic 5^ I slide my fingers down from the 7th fret
before starting up on the PM C, 4, 3 riff.

Riff B
D---------------------------------------------------------
A---------------------------------------------------------
F---------------------------------------------------------
C---------------------------------------------------------
G-0--4--3------0--4--2----0-0-0-0-0-0-0-0-0-0-5^v^v^v--\--
C-0--4--3------0--4--2---------------------------------\--
  P            P

Riff C
D---------------------------------------------------------------------------
A---------------------------------------------------------------------------
F---------------------------------------------------------------------------
C---------------------------------------------------------------------------
G-0--4--3------0--4--2----0h2---2--2--0-0-0--4--3------0--4--2----0h2---2--2
C-0--4--3------0--4--2----0h2---2--2--0-0-0--4--3------0--4--2----0h2---2--2
  P            P                      P P P


Riff D
D---------------------------------------------------------------------------------
A---------------------------------------------------------------------------------
F---------------------------------------------------------------------------------
C---------------------------------------------------------------------------------
G-0--4--3------0--4--2----0h2---2--2--2-2-2---0-0-2-2-0-0-------------------------
C-0--4--3------0--4--2----0h2---2--2--2-2-2---0-0-2-2-0-0--7-7-7-7-7-7-8-8-8-8-8-8
  P            P                P  P  P P     P P P P P P [ TREMOLO PICK THIS PART ]



Riff E
D--------------------------------------------
A--------------------------------------------
F--------------------------------------------
C--------------------------------------------
G----2---0-0-2-2-0-0-------------------------
C----2---0-0-2-2-0-0--7-7-7-7-7-7-8-8-8-8-8-8
         P P P P P P [ TREMOLO PICK THIS PART ]


Riff F
D--------------------------------------------
A--------------------------------------------
F--------------------------------------------
C--------------------------------------------
G----3---2---1----0-3---2-----0-0-0-8--------
C----3---2---1----0-3---2-----0-0-0-8--------
         P   P    P           P P P    


Riff G
When playing on the single C string, I bend the 2 slightly - I think it sounds closer
the the CD this way...
D--------------------------------------------
A--------------------------------------------
F--------------------------------------------
C--------------------------------------------
G--------------------------------------------
C----3---2^---1----0-3---2-----0-0-0-8-------
                   p           P P P

Repeat The previous Riffs, and end the riff just above by hitting an open C chord
and let it ring until you start the solo ;>


SOLO (I think this is right!!!  and haven't found it completely tabbed anywhere so
if have any other ideas let me know!)

Start with this, bending the C string up a step to make the power chord and pressing your
wah down at the same time, let A and D strings ring.
D-------0-------
A-------0-------
F-------15------
C-------14------
G---------------
C---------------

Tremolo pick this part
D-15-15-19-19-15-15-19-19-------------------------------------------------------------------------
A-------------------------15-15-19-19-15-15-19-19-------------------------------------------------
F-------------------------------------------------14-14-18-18-14-14-18-18-------------------------
C-------------------------------------------------------------------------14-14-18-18-14-14-18-18-


Use finger tapping (with your right hand [R]) on this:
I use the index finger on my right hand to hit and pull off on the 16th fret, 
while my left hand (index and middle finger) is ready to do the 13p12h13 when 

  R          R     R           R     R           R          R           R           R         
D-16p13p12h1316p13h16p13p12h13h16p13h16p13p12h13h19p13p12h1317p13p12h13h16p13p12h13h16p13p12h13--
A------------------------------------------------------------------------------------------------
F------------------------------------------------------------------------------------------------


This bit is difficult to get perfect (for me anywayz)
D-15p14p13p12-------------14p13p12p11-------------13p12p11p10-------------12p11p10p9------------
A-------------15p14p13p12-------------14p13p12p11-------------13p12p11p10------------12p11p10p9-


If you are good enough you can use octave chords here, much easier with single notes:
D------------------------------------------------------------------------------------
A------------------------------------------------------------------------------------
F---8/9~~~~~~8/9/12~~~~~~9/12-13----------12-13--12-13-16--15-13-12h13p12h13p12h13
C--------------------------------------14--------------------------------------------


D------------------------------------------------------------------------------------
A-10-10-6-6-10-10-6-6-11-11-7-7-11-11-7-7-12-12-8-8-12-12-8-8-13-13-9-9-13-13-9-9----



D--14-14p13p12p11--15-15p14p13p12--16-16p15p14p13--17-17p16p15p14---
A-------------------------------------------------------------------


Start at 9 then tremolo pick as you slide up to the highest fret you have!!!!
D------9////////////////24^----24^---24^---24^---24^-------------------------
A----------------------------------------------------------------------------

Then go back to Riff E
Riff E x 4
D--------------------------------------------
A--------------------------------------------
F--------------------------------------------
C--------------------------------------------
G----2---0-0-2-2-0-0-------------------------
C----2---0-0-2-2-0-0--7-7-7-7-7-7-8-8-8-8-8-8
         P P P P P P [ TREMOLO PICK THIS PART ]

Riff F x 4
D--------------------------------------------
A--------------------------------------------
F--------------------------------------------
C--------------------------------------------
G----3---2---1----0-3---2-----0-0-0-8--------
C----3---2---1----0-3---2-----0-0-0-8--------
         P   P    P           P P P   


Riff G x 4
When playing on the single C string, I bend the 2 slightly - I think it sounds closer
the the CD this way...
D--------------------------------------------
A--------------------------------------------
F--------------------------------------------
C--------------------------------------------
G--------------------------------------------
C----3---2^---1----0-3---2-----0-0-0-8-------
                   p           P P P

Riff A
repeat a few times (listen to track)
D----------------------------------------------------
A----------------------------------------------------
F----------------------------------------------------
C----------------------------------------------------
G-0--4--3------0--4--2-----0--4--3------0--4--2------
C-0--4--3------0--4--2-----0--4--3------0--4--2------

Then to close play Riff A on the single string and at the very end play
one bar of Riff A Palm Muting the open C power chord..


ROck on!!!!
Darren
            
Tabs too difficult? Try these video lessons and learn fast.




comments powered by Disqus
↑ Back to top | Tablatures and chords are parodies/interpretations of the original songs. You may use it for private study, scholarship, research or language learning purposes only