» » »

A Night Like This Tabs (ver.2)

Artists:  A B C D E F G H I J K L M N O P Q R S T U V W X Y Z # 

A Night Like This Tabs (ver.2)

Cure
Rating:
0/5 (0 votes)

Tabs too difficult? Try these video lessons and learn fast.
                This is a version of the song that has been changed for one guitar that plays both 
parts at once. enjoy

e|-------------2-----------|----------2----------|--------------7----------|
B|-------2--------2-----2--|-----3-------3-----2-|--------7--------7-----7-|
G|----2-----2--------2-----|---2---2--------2----|-----7-----7--------7----|
D|-4-----------------------|-0-------------------|-9-----------------------|
A|-------------------------|---------------------|-------------------------|
E|-2 ----------------------|---------------------|-7-----------------------|

e|-------------2-----------| VERSE:the heavily distorted guitar just plays  
B|-------3--------3-----3--| F#/D\B/D\ during the verse 
G|----2-----2--------2-----|
D|-0-----------------------|
A|-------------------------|
E|-------------------------|

e|--------------9----------|-------------7----------| CHORUS: do this 3x 
B|--------9--------9-----9-|-------7--------7-----7-| then play 
G|-----9-----9--------9----|----7-----7--------7----|
D|-11----------------------|-9----------------------|
A|-------------------------|------------------------|
E|-------------------------|------------------------|

e|-----------------|------------------|
B|-----------------|------------------|
G|-----------------|------------------|
D|-----------------|-4---4---7--------|
A|-6-6-6-6-6-6-6-6-|-2---2---5--------|
E|-4-4-4-4-4-4-4-4-|------------------|

e|-------------7----------|-------------2----------| :BRIDGE: one guitar 
B|-------7--------7-----7-|-------2--------2-----2-|  does that and the 
G|----7-----7--------7----|----2-----2--------2----| other guitar plays
D|-9----------------------|-4----------------------| F# A B D on E every
A|------------------------|------------------------| other measure 
E|------------------------|------------------------| the outro is just this repeated 

the pattern 

VERSE
CHORUS
VERSE
CHORUS
BRIDGE
SOLO (VERSE)
CHORUS
OUTRO
            
Tabs too difficult? Try these video lessons and learn fast.




comments powered by Disqus
↑ Back to top | Tablatures and chords are parodies/interpretations of the original songs. You may use it for private study, scholarship, research or language learning purposes only