» » »

Love Your Money Bass tabs (ver.3)

Artists:  A B C D E F G H I J K L M N O P Q R S T U V W X Y Z # 

Love Your Money Bass tabs (ver.3)

Daisy Chainsaw
Rating:
0/5 (0 votes)

Tabs too difficult? Try these video lessons and learn fast.
                
h = hammer-on
p = pull-off
~ = let note ring
^ = bend
x = mute

Tuning: Standard

Drums start the song and bass comes in at 0:18 with;
G|------------------------
D|------------------------
A|------------------------
E|-0-0-3-4-4-0-4-5-7-7-7-- x3

Kickass bass-only part;
G|-----------------------
D|-----------------------
A|-0-77-6-5-5-0-4-3-2-2--
E|-----------------------

Back to;
G|------------------------
D|------------------------
A|------------------------
E|-0-0-3-4-4-0-4-5-7-7-7-- x7

G|-----------------------
D|-----------------------
A|-0-77-6-5-5-0-4-3-2-2--
E|-----------------------

Chorus;
G|-------------------
D|-------------------
A|-7-5-7-------------
E|-------0-55-0-4-5-- x2

G|---------------------
D|---------------------
A|-7-5-7---------------
E|-------0-55-0-4-5-7--

Back to;
G|------------------------
D|------------------------
A|------------------------
E|-0-0-3-4-4-0-4-5-7-7-7-- x3

G|-----------------------
D|-----------------------
A|-0-77-6-5-5-0-4-3-2-2--

Then;
G|------------------------
D|------------------------
A|------------------------
E|-0-0-3-4-4-0-4-5-7-7-7-- x7

G|-----------------------
D|-----------------------
A|-0-77-6-5-5-0-4-3-2-2--
E|-----------------------

Chorus;
G|-------------------
D|-------------------
A|-7-5-7-------------
E|-------0-55-0-4-5-- x2

G|---------------------
D|---------------------
A|-7-5-7---------------
E|-------0-55-0-4-5-7--

Chorus extension part;
G|-------------------
D|-------------------
A|-7-5-7-------------
E|-------0-55-0-4-5-- x2

G|---------------------
D|---------------------
A|-7-5-7---------------
E|-------0-55-0-4-5-7--

Bridge;
G|-------------------
D|-------------------
A|-------------------
E|-7-5-7-0-55-0-4-5-- x6

Small guitar-only break then straight back to;
G|-------------------
D|-------------------
A|-7-5-7-------------
E|-------0-55-0-4-5-- x2

G|--------------------------------
D|--------------------------------
A|--------------------------------
E|-7-7-5-5-4-4-2-2-5-5-4-4-2-2/7--

G|-------------------
D|-------------------
A|-7-5-7-------------
E|-------0-55-0-4-5-- x3

G|--------------
D|--------------
A|--------------
E|-7----7----7--

G|------------------------
D|------------------------
A|------------------------
E|-7-7-5-5-4-4-2-2-5-4-0--

Song ends.
            
Tabs too difficult? Try these video lessons and learn fast.




comments powered by Disqus
↑ Back to top | Tablatures and chords are parodies/interpretations of the original songs. You may use it for private study, scholarship, research or language learning purposes only