» » »

Little Black Heart Tabs (ver.1)

Artists:  A B C D E F G H I J K L M N O P Q R S T U V W X Y Z # 

Little Black Heart Tabs (ver.1)

Early November
Rating:
4/5 (3 votes)

Tabs too difficult? Try these video lessons and learn fast.
                			     LITTLE BLACK HEART - The Early November

Tuning: Standard, Capo 1

I know there are alot of muted strings in these chords, but don't stress yourself out
landing them all. This is how I play these chords naturally. Maybe it's sloppy, but it
close enough to the record. In some places, leaving certain strings open sounds funny, 
my reason for writting it in as I did.

My guess, is that this is about 90% correct, but it's a start so that others will submit
input and updated tabs.


Verse 1: (4x) "I've got some deep scars..."

e||--3--x--0--x--0---|
B||--3--3--3--3--1---|
G||--0--2--0--0--0---|
D||--0--0--2--x--2---|
A||--2--0--3--2--0---|
E||--3--2--0--0--x---|


Chorus: (2x) "It's my life..."

e||--3-----x-----x-----x---|
B||--3-----3-----3-----3---|
G||--0-----0-----0-----2---|
D||--0-----0-----2-----0---|
A||--2-----x-----2-----x---|
E||--3-----2-----0-----2---|


Verse 2: (4x) "So now my head hurts..."

e||--3--x--0--x--0---|
B||--3--3--3--3--1---|
G||--0--2--0--0--0---|
D||--0--0--2--x--2---|
A||--2--0--3--2--0---|
E||--3--2--0--0--x---|

"My knees start to shake..."

e||--x-----x---|
B||--3-----3---|
G||--0-----2---|
D||--0-----0---|
A||--x-----x---|
E||--3-----2---|

Chorus: (2x)

Bridge: (2x) "There's one thing missing..."

e||--x-----x-----x---|
B||--3-----3-----3---|
G||--0-----2-----0---|
D||--2-----0-----2---|
A||--2-----x-----3---|
E||--0-----2-----0---|

Verse: (2x)

Chorus: (3x)

Ending:

e||--x--x--x--x--x--x---|
B||--x--x--x--x--x--x---|
G||--x--5--2--5--x--4~--|
D||--5--5--2--5--2--5~--|
A||--5--3--0--3--2--5~--|
E||--3-----x--x--0--3~--|
            
Tabs too difficult? Try these video lessons and learn fast.




comments powered by Disqus
↑ Back to top | Tablatures and chords are parodies/interpretations of the original songs. You may use it for private study, scholarship, research or language learning purposes only