>
 >
Crossroads 3

Crossroads 3 Guitar Tabs

Eric Clapton - Crossroads 3 chords, tabs, tablatures, lyrics

Guitar lessons | Add/correct | Request | Top 50 tabs Artists:  A B C D E F G H I J K L M N O P Q R S T U V W X Y Z 0-9

Crossroads 3 Guitar Tabs – Eric Clapton

CD, Sheet music, Poster

Do you like Crossroads 3? Share with your friends now
Bass TabsChordsTabsTabs v2Tabs v3Ukulele
Here is the complete solo to Eric Clapton's Crossroads

e|-----------------17---17--------17-17---17-17-17------------17------|
B|----17-17-17-17--17---17-17---17-----17---------20b(vibrato)--20----|
G|-------------19b-19b--x--19b---------19b------------------------19b-|
D|--------------------------------------------------------------------|
A|-0------------------------------------------------------------------|
E|--------------------------------------------------------------------|

e|------------------17------------------20b---20--17-20-17---17(vibrato|
B|---------------17---20-17-------------------------------19-----------|
G|-17-19---17b-18-----------19---17b-----------------------------------|
D|------19---------------------------19--------------------------------|
A|---------------------------------------------------------------------|
E|---------------------------------------------------------------------|

e|-x--------------17-------------------------------------------------------|
B|--19-20b(vibrato)-20-----------------------------------------------------|
G|--------------------19b19h-17--17-19-19b--17(vibrato)---17------17--17-17|
D|-----------------------------19----------------------19-17-19-19--19-----|
A|-------------------------------------------------------------------------|
E|-------------------------------------------------------------------------|

e|----------------------------------------------------------------------17-|
B|-------------------------------------------------------------------17----|
G|-17------17--17-17------17--17---------17-17----x-17-19-17b--------19b---|
D|-17-19-19--19---17-19-19--19---17----17---17-19-x-19--0----19-17-19------|
A|-------------------------------17-19-19---------------------0------------|
E|-------------------------------------------------------------------------|

e|------------------------------------------------------------------------|
B|-17-17---17-17-17-17-20-17--17-----------20b----------------------------|
G|------19b-----------------19--17-19-17b-----17-19-17(vibrato)-x-------17|
D|---------------------------------------19----------------------19-17--17|
A|--------------------------------------------------------------------19--|
E|------------------------------------------------------------------------|

e|----------17------------17--17----17--17-20-17--20b-19b-17--17-----------|
B|-----17-19--20b(vibrato)--20--20b---20--------20----------20--20b(vibrato|
G|-17----------------------------------------------------------------------|
D|-17----------------------------------------------------------------------|
A|---19--------------------------------------------------------------------|
E|-------------------------------------------------------------------------|

e|-17---------------------------------------------------------------------|
B|x--20--17-20----------17b-17b--------------------------------17-19------|
G|------------19-17-19---------19-19b-17-19(vibrato)-17-19-17--17-19------|
D|--------------------19-------------------------------------19-----17-19-|
A|------------------------------------------------------------------------|
E|------------------------------------------------------------------------|

e|-------------------------------------------------------------|
B|----------------17----17-17--17------------------------------|
G|-17-19b---17-18----19----19------------------17(vibrato)17---|
D|--------19----------------------19-17---17-19-------------19-|
A|-------------------------------------19----------------------|
E|-------------------------------------------------------------|

e|----------------------------------------------------17------------|
B|20-17--20-17--20-17--20-17--20b(vibrato)20h(vibrato)--20-17-------|
G|-----19-----19-----19-----19-------------------------------19b-19b|
D|------------------------------------------------------------------|
A|------------------------------------------------------------------|
E|------------------------------------------------------------------|

e|-------------------------------------------------------------------------|
B|-------------------------------------------------------------------------|
G|17-19-17-----17b--------17-19-17-17-17-17-17------17-17---17----17-17----|
D|--------19-19---19-17---17-19-17-19-17-19-17-19-19-----19-17-19-19-17-19-|
A|---------------------19--------------------------------------------------|
E|-------------------------------------------------------------------------|

e|------------------------------------------------------------------------{
B|------19-19b-19-19b-19-19b-19-19b-19-19b--19b--19b--19b-----------------|
G|17-17-19-19b-19-19b-19-19b-19-19b-19----19---19---19---19-17(vibrato)17-|
D|19-19-------------------------------------------------------------------|
A|------------------------------------------------------------------------|
E|------------------------------------------------------------------------|

e|--------------------------------------------------------------|
B|--------------------------------17-20-17--20-17--20b(vibrato)-|
G|--------17----17---17-17------17--------19-----19-------------|
D|19-17---17-19-19-19---17-19-19--------------------------------|
A|-----19-------------------------------------------------------|
E|--------------------------------------------------------------|

e|17----------17----------17----------17-------------------------|
B|--20-17-20b---20-17-20b---20-17-20b---20-17--------------------|
G|-------------------------------------------19b-19b-17---19-17b-|
D|-----------------------------------------------------19-19-----|
A|---------------------------------------------------------------|
E|---------------------------------------------------------------|

e|---------------17------------------------19b--19b--17-19---|
B|-------------17---20-17--17-----------------------------19-|
G|--------17-18----------19---17-19-17b----------------------|
D|19-17-19------------------------------19-------------------|
A|-----------------------------------------------------------|
E|-----------------------------------------------------------|

e|17(vibrato)--17-17(vibrato)-17-17--19b-|
B|----------19---------------------19----|
G|---------------------------------------|
D|---------------------------------------|
A|---------------------------------------|
E|---------------------------------------|

And that's the solo. Sorry if everythings a little cramped. I had to fit it in somehow.

Guitarflare





Comments


Popular Eric Clapton tabs & chords
Please Be With Me Chords
Revolution Chords
Running On Faith 1 Chords
Layla Drum Tabs
Burrito Song Tabs
Cant Find My Way Home Intro Tabs
Cocain Tabs
Cocain 2 Tabs
I Looked Away Tabs
Wonderful Tonight 5 Tabs


Song lyrics



↑ Back to top | Tablatures and chords are parodies/interpretations of the original songs. You may use it for private study, scholarship, research or language learning purposes only
© 2014 AZChords.com Contact us | Privacy policy | DMCA | Add/correct tabs | Request tabs | Top 50 tabs