» » »

After The Ordeal Tabs (ver.3)

Artists:  A B C D E F G H I J K L M N O P Q R S T U V W X Y Z # 

After The Ordeal Tabs (ver.3)

Genesis
Rating:
0/5 (0 votes)
Tabs too difficult? Try these video lessons and learn fast.
                Sorry about the solo, some notes are missing but it's just repetition of notes
that i did write in so you should be able to figure out how to play it.


e|--10--8-----------------------------------------------------------|
B|--10--8--6--8-~-----------------------------------------------5-5-|
G|--10--9--7--9-~-------4---------4-5---7-5-4---5-5--7-5-4--5-7-----|
D|---------8--10~---7-7---7-5---7-----------------------------------|
A|---------8--------------------------------------------------------|
E|------------------------------------------------------------------|

e|---------------------------------|
B|--10--10-8-----------------------|
G|-----------10--9-10-9--------10--|
D|-----------------------10--------|
A|--------------------------13-----|
E|---------------------------------|

e|--------------------------------------------------|
B|----------------------------------------------5-5-|
G|------4---------4-5---7-5-4---5-5--7-5-4--5-7-----|
D|--7-7---7-5---7-----------------------------------|
A|--------------------------------------------------|
E|--------------------------------------------------|

e|----------------------12--10--17--15--12---10---12--10--15--12-|
B|--10---8--------------13--11--18--17--13---11---13--11--17--13-|
G|---------10--9-10-9--------------------------------------------|
D|---------------------------------------------------------------|
A|---------------------------------------------------------------|
E|---------------------------------------------------------------|


e|-17-15-17-15--------------15-13-12-13-15-------12---11-12-14-|
B|-------------17-15--17-15-----------------14-15--------------|
G|-------------------------------------------------------------|
D|-------------------------------------------------------------|
A|-------------------------------------------------------------|
E|-------------------------------------------------------------|


e|--------11-----12--14-12-11---12-9----------------12-9-------|
B|--13-14-----14---------------------10-9-7--------------10-9-7|
G|------------------------------------------9-8-9--------------|
D|-------------------------------------------------------------|
A|-------------------------------------------------------------|
E|-------------------------------------------------------------|


e|----------------------7---------------------------------------|
B|--------7-9-10-9--------9---------7-------------7----------9--|
G|-9-8-9--------------------6~--8h9----9p8-6--8h9----9p8--10----|
D|------------------9-------------------------------------------|
A|--------------------------------------------------------------|
E|--------------------------------------------------------------|

e|-------------------------------------------6-----------4-----|
B|-------------7--------6-----5---6-----5---------6----5-------|
G|-------7---8-----9------7-4-------7-4---------7----4---------|
D|--9-10---------6---------------------------------------------|
A|-------------------------------------------------------------|
E|-------------------------------------------------------------|


e|--------------------------------------------------|
B|----------------------------------------------5-5-|
G|------4---------4-5---7-5-4---5-5--7-5-4--5-7-----|
D|--7-7---7-5---7-----------------------------------|
A|--------------------------------------------------|
E|--------------------------------------------------|

e|----------------------12--10--17--15--12---10---12--10--15--12-|
B|--10---8--------------13--11--18--17--13---11---13--11--17--13-|
G|---------10--9-10-9--------------------------------------------|
D|---------------------------------------------------------------|
A|---------------------------------------------------------------|
E|---------------------------------------------------------------|


e|-17-15-17-15-------------------------------------------------|
B|-------------17-15-----9-----------7-------6-----5---6-----5-|
G|--------------------10--------7--8-----9-----7-4-------7-4---|
D|-------------------------9-10--------6-----------------------|
A|-------------------------------------------------------------|
E|-------------------------------------------------------------|


e|-5---------4---0--3--1--3---------------------------12~-12-12|
B|-----6---5-----1--3--1--3---12~--12-12-10-10-8-7-8-----------|
G|---7---4-------2--0--2--0------------------------------------|
D|---------------2--0--3--0------------------------------------|
A|---------------0--2--3--2------------------------------------|
E|---------------0--3--1--3------------------------------------|

e|-12-10--10--8-7-8---15-14-12-----13-12-10--------------------|
B|-----------------------------15------------13--13-11-10-11---|
G|-------------------------------------------------------------|
D|-------------------------------------------------------------|
A|-------------------------------------------------------------|
E|-------------------------------------------------------------|

e|-------------------------------------------5-7-12~--12-12-10-|
A|-10--10b13--12~--12-12-10-10---10-8-7-8--8-------------------|
B|-------------------------------------------------------------|
G|-------------------------------------------------------------|
D|-------------------------------------------------------------|
A|-------------------------------------------------------------|
E|-------------------------------------------------------------|

e|-10-8-7-8--8-10-12--15-14-12-----13-12-10--------------------|
A|-----------------------------15-----------13---13-11-10-11---|
B|-------------------------------------------------------------|
G|-------------------------------------------------------------|
D|-------------------------------------------------------------|
A|-------------------------------------------------------------|
E|-------------------------------------------------------------|

e|-----8-7---15b17r-14-15----------------------------|
A|-10------------------------------------------------|
B|------------------------14b16r-12-14---------------|
G|------------------------------------------12-11----|
D|---------------------------------------14----------|
A|---------------------------------------------------|
E|---------------------------------------------------|



Finally repeat this until the end:


e|-----------------------10~--------|
B|--------8--10--12--13--12~---8----|
G|----11--9--11--12--14--------9----|
D|-12-12----------------------------|
A|----------------------------------|
E|----------------------------------|
            
Tabs too difficult? Try these video lessons and learn fast.


comments powered by Disqus
↑ Back to top | Tablatures and chords are parodies/interpretations of the original songs. You may use it for private study, scholarship, research or language learning purposes only