» » »

Our Last Dance Tabs (ver.2)

Artists:  A B C D E F G H I J K L M N O P Q R S T U V W X Y Z # 

Our Last Dance Tabs (ver.2)

Halifax
Rating:
4/5 (1 vote)

Tabs too difficult? Try these video lessons and learn fast.
                (Intro)

E-----------------------------------------------|
B-----------------------------------------------|
G-------------------8h9-8-----------------------|
D-------9-8-9-8h9-------------9-8-9-8h9---------|
A----0------------------------------------------|
E---0-------------------------------------------|


E-----------------------------------------------|
B-----------------------------------------------|
G--11-9-8---------------8h9-8-------------------|
D-----------9-8-9-8h9-----------9-8--4----------|
A-----------------------------------------------|
E-----------------------------------------------|

That's it. Have fun.
            
Tabs too difficult? Try these video lessons and learn fast.




comments powered by Disqus
↑ Back to top | Tablatures and chords are parodies/interpretations of the original songs. You may use it for private study, scholarship, research or language learning purposes only