» » »

Circle Of Fear Bass tabs (ver.1)

Artists:  A B C D E F G H I J K L M N O P Q R S T U V W X Y Z # 

Circle Of Fear Bass tabs (ver.1)

H.I.M
Rating:
0/5 (0 votes)

Tabs too difficult? Try these video lessons and learn fast.
                Tuning: Standard

Intro
G---------------------------------------------------|
D---------------------------------------------------|   (X1)
A---------------------------------------------------|
E-3-3-5----3-3-5----3-3-1----3----1----0----3-3-5---|

Verse
G------------------------------------------------------------------| 
D------------------------------------------------------------------|   (X6)
A-----------------3-3-3-3-3-3-3-3----------------------------------|
E-5-5-5-5-5-5-5-5-----------------3-3-3-3-3-3-3-3-3-3-3-3-3-3-3-3--|

Chorus
G------------------------------------------------------------------| 
D------------------------------------------------------------------|   (X3)
A------------------------------------------------------------------|
E-1-1-1-1-1-1-1-1-3-3-3-3-3-3-3-3-5-5-5-5-5-5-5-5-1-1-1-1-1-1-1-1--|
 
G----------------------------------|
D----------------------------------|   (X1)
A----------------------------------|
E-1-1-1-1-1-1-1-1-3-3-3-3-3-3-3-3--|

Verse
G------------------------------------------------------------------| 
D------------------------------------------------------------------|   (X6)
A-----------------3-3-3-3-3-3-3-3----------------------------------|
E-5-5-5-5-5-5-5-5-----------------3-3-3-3-3-3-3-3-3-3-3-3-3-3-3-3--|

Chorus
G------------------------------------------------------------------| 
D------------------------------------------------------------------|   (X3)
A------------------------------------------------------------------|
E-1-1-1-1-1-1-1-1-3-3-3-3-3-3-3-3-5-5-5-5-5-5-5-5-1-1-1-1-1-1-1-1--|
 
G----------------------------------|
D----------------------------------|   (X1)
A----------------------------------|
E-1-1-1-1-1-1-1-1-3-3-3-3-3-3-3-3--|

Middle 8 - Rest

Chorus
G------------------------------------------------------------------| 
D------------------------------------------------------------------|   (X3)
A------------------------------------------------------------------|
E-1-1-1-1-1-1-1-1-3-3-3-3-3-3-3-3-5-5-5-5-5-5-5-5-1-1-1-1-1-1-1-1--|
 
G----------------------------------|
D----------------------------------|   (X1)
A----------------------------------|
E-1-1-1-1-1-1-1-1-3-3-3-3-3-3-3-3--|

Verse
G------------------------------------------------------------------| 
D------------------------------------------------------------------|   (X4)
A-----------------3-3-3-3-3-3-3-3----------------------------------|
E-5-5-5-5-5-5-5-5-----------------3-3-3-3-3-3-3-3-3-3-3-3-3-3-3-3--|

Short Pause

Outro
G---------------------------------------------------|
D---------------------------------------------------|   (X1)
A---------------------------------------------------|
E-3-3-5----3-3-5----3-3-1----3----1----0----3-3-5---|
            
Tabs too difficult? Try these video lessons and learn fast.


comments powered by Disqus
↑ Back to top | Tablatures and chords are parodies/interpretations of the original songs. You may use it for private study, scholarship, research or language learning purposes only