» » »

Ghost Of Navigator Bass tabs (ver.1)

Artists:  A B C D E F G H I J K L M N O P Q R S T U V W X Y Z # 

Ghost Of Navigator Bass tabs (ver.1)

Iron Maiden
Rating:
0/5 (0 votes)

Tabs too difficult? Try these video lessons and learn fast.
                Ghost of the Navigator by Iron Maiden

(Intro)
G:-----------|-----------|-----------|-----------|
D:----7------|-----5-----|-----7-----|-----5-----|
A:----5------|-----3-----|-----5-----|-----3-----|
E:-----------|-----------|-----------|-----------|

G:-----------|-----------|-----------|-----------|
D:-----------|-----------|-----7-----|-----5-----|
A:-----8-----|-----8-----|-----5-----|-----3-----|
E:-----6-----|-----6-----|-----------|-----------|

G:-----------|-----------|-----------|-----------|
D:7----------|-----------|5-5-5-5-5-5|7----------|  x2
A:5-5-5-5-5-5|8-8-8-8-8-8|3----------|5-5-5-5-5-5|
E:-----------|6----------|-----------|-----------|

G:-----------|-----------|-----------|-----------|
D:-----------|-----------|-----------|-----------|  x4
A:5--5--5--5-|-5--5--5--5|-5--5--5--5|-5--5--5--5|
E:-----------|-----------|-----------|-----------|

(Verse)
G:-----------|-----------|-----------|-----------|
D:-----------|-----------|-----------|7----------|  x6
A:5--55555555|5--55555555|5--55555555|----5--5--5|
E:-----------|-----------|-----------|-----------|

G:-----------|-----------|-----------|-----------|
D:-----------|-----------|-----------|-----------|  x4
A:0-0-0-0-0-0|3-3-3-3-3-3|2-2-2-2-2-2|5----3----2|
E:-----------|-----------|-----------|-----------|

(Chorus)
G:-----------|-----------|-----------|-----------|
D:-----2-----|-----5-----|-----------|-----------|  x4
A:-----------|-----------|-----3-----|-----------|
E:-----------|-----------|-----------|-----5-----|

G:-----------|-----------|-----------|-----------|
D:-----------|-----------|-----------|-----------|__
A:5----5----5|3----3----3|5----5----5|3----3----3|  |
E:-----------|-----------|-----------|-----------|  |
                                                    |__x2
G:-----------|-----------|-----------|-----------|  |
D:-----------|-----------|-----------|-----------|  |
A:-----------|-----------|5----5----5|3----3----3|__|
E:6----6----6|6----6----6|-----------|-----------|


(Verse II)
G:-----------|-----------|-----------|-----------|
D:-----------|-----------|-----------|7----------|  x4
A:5--55555555|5--55555555|5--55555555|----5--5--5|
E:-----------|-----------|-----------|-----------|

G:-----------|-----------|-----------|-----------|
D:-----------|-----------|-----------|-----------|
A:0-0-0-0-0-0|3-3-3-3-3-3|2-2-2-2-2-2|5----3----2|
E:-----------|-----------|-----------|-----------|

G:-----------|-----------|-----------|-----------|
D:-----------|-----------|-----------|0----2----3|
A:0-0-0-0-0-0|3-3-3-3-3-3|2-2-2-2-2-2|-----------|
E:-----------|-----------|-----------|-----------|

G:-----------|-----------|-----------|-----------|
D:-----------|-----------|-----------|-----------|  x2
A:0-0-0-0-0-0|3-3-3-3-3-3|2-2-2-2-2-2|5----3----2|
E:-----------|-----------|-----------|-----------|

G:-----4-----|-----7-----|-----------|-----------|
D:-----2-----|-----5-----|-----5-----|-----------|  x4
A:-----------|-----------|-----3-----|-----7-----|
E:-----------|-----------|-----------|-----5-----|


G:-----------|-----------|-----------|-----------|
D:-----------|-----------|-----------|-----------|__
A:5----5----5|3----3----3|5----5----5|3----3----3|  |
E:-----------|-----------|-----------|-----------|  |
                                                    |__x2
G:-----------|-----------|-----------|-----------|  |
D:-----------|-----------|-----------|-----------|  |
A:-----------|-----------|5----5----5|3----3----3|__|
E:6----6----6|6----6----6|-----------|-----------|

G:-----------|-----------|-----------|-----------|
D:-----------|-----------|-----------|7----------|  x4
A:5--55555555|5--55555555|5--55555555|----5--5--5|
E:-----------|-----------|-----------|-----------|

(Bridge)
G:-----------|-----------|-----------|-----------|
D:2-2-2-2-2-2|2-2-2-2-2-2|2-2-2-2-2-2|-----0-----|  x2
A:-----------|-----------|-----------|3---------2|
E:-----------|-----------|-----------|-----------|

G:-----------|-----------|-----------|-----------|
D:0-0-0-0-0-0|0-0-0-0-0-0|0-0-0-0-0-0|----------0|  x2
A:-----------|-----------|-----------|1----3-----|
E:-----------|-----------|-----------|-----------|

G:-----------|-----------|-----------|-----------|
D:4-4-4-4-4-4|4-4-4-4-4-4|4-4-4-4-4-4|-----2----4|  x2
A:-----------|-----------|-----------|5----------|
E:-----------|-----------|-----------|-----------|

G:-----------|-----------|-----------|-----------|
D:2-2-2-2-2-2|2-2-2-2-2-2|2-2-2-2-2-2|-----0-----|  x2
A:-----------|-----------|-----------|3---------2|
E:-----------|-----------|-----------|-----------|

G:-----4-----|-----7-----|-----------|-----------|
D:-----2-----|-----5-----|-----5-----|-----------|  x4
A:-----------|-----------|-----3-----|-----7-----|
E:-----------|-----------|-----------|-----5-----|

G:-----------|-----------|-----------|-----------|
D:-----------|-----------|-----------|-----------|__
A:5----5----5|3----3----3|5----5----5|3----3----3|  |
E:-----------|-----------|-----------|-----------|  |
                                                    |__x2
G:-----------|-----------|-----------|-----------|  |
D:-----------|-----------|-----------|-----------|  |
A:-----------|-----------|5----5----5|3----3----3|__|
E:6----6----6|6----6----6|-----------|-----------|

(Outro)
G:-----------|-----------|-----------|-----------|
D:-----7----5|3----2----3|-----------|-----------|
A:5----------|-----------|5-5-5-5-5-5|5-5-5-5-5-5|
E:-----------|-----------|-----------|-----------|

Thanks, please rate it after you learn it.
_TheBassist01_
            
Tabs too difficult? Try these video lessons and learn fast.




comments powered by Disqus
↑ Back to top | Tablatures and chords are parodies/interpretations of the original songs. You may use it for private study, scholarship, research or language learning purposes only