» » »

Mom In Love, Daddy In Space Tabs (ver.1)

Artists:  A B C D E F G H I J K L M N O P Q R S T U V W X Y Z # 

Mom In Love, Daddy In Space Tabs (ver.1)

Kashmir
Rating:
0/5 (0 votes)

Tabs too difficult? Try these video lessons and learn fast.
                Tuning: Standard E A D G B E


This one should be just about quite right!

Enjoy!

Vers:

e-------------------------|--------------------------|-------------------------|
B-------------------------|--------------------------|-------------------------|
G--------5----------5-----|---------4----------4-----|--------4----------4-----|
D----7-----7----7-----7---|-----7-----7----7-----7---|----6-----6----6-----6---|
A--7---7------7---7-------|---6---6------6---6-------|--5---5------5---5-----5-|
E-------------------------|--------------------------|-------------------------|
            Walking bones...                                    Choose your..

e-------------------------|--------------------------|-------------------------|
B-------------------------|--------------------------|-------------------------|
G--------2----------2-----|--------2-----------2-----|--------4----------4-----|
D----2-----2----2-----2---|----3-----3-----3-----3---|----3-----3----3-----3---|
A--3---3------3---3-----3-|--3---3-------3---3-----3-|3/5---5------5---5-------|
E-------------------------|--------------------------|-------------------------|
                             Go have fun..

e-------------------------|--------------------------|
B-------------------------|--------------------------|
G--------4----------4-----|--------4-----------5-----|
D----5-----5----5-----5---|----6-----6-----6-----6---| X2 And just before
A--5---5------5---5-----5-|--7---7-------7---6-------|    the chorus it
E-------------------------|--------------------------|    goes like this
                                                          instead:


e--------------------------||
B--------------------------||
G--------7-----------7-----||
D----6-----6-----6-----6---||
A--7---7-------7---7-------||
E--------------------------||
          holes will fill...

Chorus:

   A                         Em                          D
e--0----------------------|--0-----------------------|---2---------------------|
B--2----------------------|--0-----------------------|---3---------------------|
G--2----------------------|--0-----------------------|---2---------------------|
D--2----------------------|--2-----------------------|---0---------------------|
A--0----------------------|--2-----------------------|---x---------------------|
E--x----------------------|--0-----------------------|---x---------------------|
  Every home...             Have a...                   Love...

   A                         E
e--0----------------------|--0-----------------------|
B--2----------------------|--0-----------------------|
G--2----------------------|--1-----------------------|
D--2----------------------|--2-----------------------| And so on through the
A--0----------------------|--2-----------------------| chorus untill it says
E--x----------------------|--0-----------------------|
  Daddy in...               Space..

                           "Short" bridge
  F#m      E                 F                          G
e--2----------------------|--1-----------------------|--3----------------------|
B--2----------------------|--1-----------------------|--3----------------------|
G--2-------1--------------|--2-----------------------|--4----------------------|
D--4-------2--------------|--3-----------------------|--5----------------------|
A--4-------2--------------|--3-----------------------|--5----------------------|
E--2----------------------|--1-----------------------|--3----------------------|
  Window space..            Show her...                 All worn...


"Long" bridge

  F   F         G   G    A      A   A   A   A   G#   G   F#
e--1---1--  -g-  -3---3-  -5------5---5---5------------------|
B--1---1--  -e-  -3---3-  -5------5---5---5------------------|
G--2---2--  -n-  -4---4-  -6------6---6---6---6---5----4---3-|
D--3---3--  -t-  -5---5-  -7------7---7---7---7---6----5---4-| X3
A--3---3--  -a-  -5---5-  -7------7---7---7---7---6----5---4-|
E--1---1--  -g-  -3---3-  -5------5---5---5---5---4----3---2-|
   Show her some respect...

Then the chorus, and now:


Octaves


e--------------------------------------------------  ---------------|
B--------------------------------------------------  ---------------|
G--13-14-16-18-13-14-16-18-13-14-16-18-21-19-18-16-  -14--11--13--9-|
D--------------------------------------------------  ---------------|
A--11-12-14-16-11-12-14-16-11-12-14-16-19-17-16-14-  -12---9--11--7-|
E--------------------------------------------------  ---------------|

(On an acoustic guitar the octave part can be played like this instead)

   D    E      F#m    A                                 D   E
e--2------------2------------                        ---2----------|
B--3------------2-----2------                        ---3----------|
G--2----1-------2-----2------                        ---2---1------|
D-------2-------4-----2------                        -------2------|
A-------2-------4------------                        -------2------|
E---------------2------------                        --------------|


Outro

e ---------9--------------9-|
H -------10-10----------10--|
G -----11-----11------11----| Do this couple of times
D ---11---------11--11------| and end with a strum:
A --9-------------9---------|
E --------------------------|

e --9------|
H --10-----|
G --11-----|
D --11-----|
A --9------|
E --9------|

After the first chorus the picking pattern alters and goes like this:

e--------------------------|
B--------------------------|
G--------7-----------5-----|
D----6-----6---6---6---6---| and so forth through the other chords.
A--7---7---------7-------7-|
E--------------------------|


Intro (Keyboard)
Verse x3 (Guitar)
Chorus x1
Short bridge
Verse x2 (Guitar)
Chorus x1
Long bridge
Chorus x1
Octaves
Outro
            
Tabs too difficult? Try these video lessons and learn fast.


comments powered by Disqus
↑ Back to top | Tablatures and chords are parodies/interpretations of the original songs. You may use it for private study, scholarship, research or language learning purposes only