» » »

You're Dying To Be With Me Tabs (ver.2)

Artists:  A B C D E F G H I J K L M N O P Q R S T U V W X Y Z # 

You're Dying To Be With Me Tabs (ver.2)

Macabre
Rating:
0/5 (0 votes)

Tabs too difficult? Try these video lessons and learn fast.
                tuned to drop c with a capo on the second fret
is how I figured it out, but it's 99.99999% right

BEGINING (repeat twice)
|-----------------------------------------------|
|-----------------------------------------------|
|---------------------------(quick run)---------|
|--9-9-9-9-9-9-9-9-9-9-9-9-97-7-79 10 9---------|
|-0-0-0-0-0-0-0-0-0-0-0-0----9-9----------------|
|<        PALM MUTE        >--------------------|


verse  (repeat 6 times) all open
|-----------------------------------------------|
|-----------------------------------------------|
|-----------------------------------------------|
|------------------------97-7-79 10 9-----------|
|000000000000000000000000--9-9------------------|
|-----------------------------------------------|


CHORUS                  
|----------------------|------------------------|
|----------------------|------------------------|
|--11----9-----8-----7-|------------------------|
|--9-----7-----6-----5-|------------------------|
|9-----7-----6-----5---|-4-4444543--4-4444543---|
|9-----7-----6-----5---|-4-4444543--4-4444543---|



well thats all there is to it except for the lead.
That might be awhile for me to figure out.

This is my first time tabbing on here, so I hope you 
understand it
            
Tabs too difficult? Try these video lessons and learn fast.


comments powered by Disqus
↑ Back to top | Tablatures and chords are parodies/interpretations of the original songs. You may use it for private study, scholarship, research or language learning purposes only