» » »

Try Tabs (ver.2)

Artists:  A B C D E F G H I J K L M N O P Q R S T U V W X Y Z # 

Try Tabs (ver.2)

Off By One
Rating:
0/5 (0 votes)

Tabs too difficult? Try these video lessons and learn fast.
                (Acoustic)
Guitar 1  
  Intro
e:---------------------------------------------------------------
B:---------------------------------------------------------------
G:---------------------------------------------------------------
D:-----5-----5-----------5-----4---5-----5-----5-----77755544----repeat 2x
A:-----------------------------------3-3---3-3---3-3-------------
E:-0-0---0-0---0-0---3-3---3-3---3-------------------------------

   After 3rd time do this

e:---------------------------------------------------------------
B:---------------------------------------------------------------
G:---------------------------------------------------------------
D:-77755544-77755544-77755544-9999777755554444-------------------
A:---------------------------------------------------------------
E:---------------------------------------------------------------

Guitar 2 (come in when guitar goes through once)
  intro.
e:---------------------------------------------------------------
B:---------------------------------------------------------------
G:---------------------------------------------------------------
D:-999999--------555555-77777777---------------------------------repeat 2x
A:-777777-555555-333333-55555555---------------------------------
E:--------333333-------------------------------------------------

Guitar 1
  intro. continued
e:---------------------------------------------------------------
B:---------------------------------------------------------------
G:---------------------------------------------------------------
D:-5454545454545454545454545454-4h5p4-55-55-55-44-444------------
A:------------------------------------77-33-55-55-555------------
E:---------------------------------------------------------------

Guitar 2
  intro. continued
e:---------------------------------------------------------------
B:---------------------------------------------------------------
G:---------------------------------------------------------------
D:--5-5-5-5--5-5-5-5--5-5-5-5--4-4-4h5p4-------------------------repeat 2x
A:-7-7-7-7--3-3-3-3--5-5-5-5--5-5--------------------------------
E:---------------------------------------------------------------

Guitar 1 
  Verse
e:---------------------------------------------------------------
B:---------------------------------------------------------------
G:---------------------------------------------------------------
D:-55555555-55555555-55555555-44444444---------------------------
A:-77777777-33333333-55555555-55555555---------------------------
E:---------------------------------------------------------------
                                                                 repeat 2x
e:---------------------------------------------------------------
B:---------------------------------------------------------------
G:---------------------------------------------------------------
D:-----5-7-5-----5-4-5-----5-7-5-----4h5p4 2---------------------
A:-7-7-------3-3-------5-5-------5-5-----------------------------
E:---------------------------------------------------------------

Guitar 2
  verse
e:---------------------------------------------------------------
B:---------------------------------------------------------------
G:---------------------------------------------------------------
D:--7-7-7-7--5-5-5-5--5-5-5-5--4-4-4-4---------------------------repeat 4x
A:-5-5-5-5--3-3-3-3--5-5-5-5--5-5-5-5----------------------------
E:---------------------------------------------------------------

thats all i got so far
            
Tabs too difficult? Try these video lessons and learn fast.




comments powered by Disqus
↑ Back to top | Tablatures and chords are parodies/interpretations of the original songs. You may use it for private study, scholarship, research or language learning purposes only