» » »

Colour Red Tabs (ver.1)

Artists:  A B C D E F G H I J K L M N O P Q R S T U V W X Y Z # 

Colour Red Tabs (ver.1)

One Dollar Short
Rating:
0/5 (0 votes)

Tabs too difficult? Try these video lessons and learn fast.
                Band: One Dollar Short

Intro/guitar.1 
e|---------------------------------------------|
B|---------------------------------------------|
G|---------------------------------------------|
D|-9-9-9-9-9--9-9-9-9-9--9-9-9-9-9--9-9-9-9-9--|
A|-9-9-9-9-9--9-9-9-9-9--9-9-9-9-9--9-9-9-9-9--|
D|-9-9-9-9-9--9-9-9-9-9--9-9-9-9-9--9-9-9-9-9--|

e|-------------------------------------------|
B|-------------------------------------------|
G|-------------------------------------------|
D|-7p5-5-5-5--5p4-4-4--4h5-5-5-5--5p4-2-2-2--|
A|-7p5-5-5-5--5p4-4-4--4h5-5-5-5--5p4-2-2-2--|
D|-7p5-5-5-5--5p4-4-4--4h5-5-5-5--5p4-2-2-2--|

Guitar.2 plays this over the top
e|------------------------------------|
B|------------------------------------|
G|1111111111--1111111111--11\9-9-9-9--|
D|-x-x-x-x-x---x-x-x-x-x---x\x-x-x-x--|
A|-9-9-9-9-9---9-9-9-9-9---9\7-7-7-7--|
D|------------------------------------|

e|----------------------------------|
B|----------------------------------|
G|-9\7-7-7-7--6/7-7-7-7--7\6-4-4-4--|
D|-x\x-x-x-x--x/x-x-x-x--x\x-x-x-x--|
A|-7\5-5-5-5--4/5-5-5-5--5\4-2-2-2--|
D|----------------------------------|

Guitar.1
e|-------------------------------------------------------|
B|-------------------------------------------------------|
G|-------------------------------------------------------|
D|-7h9-9-9-9--7h9-9-9-9-xxxx--7h9-9-9-9--7h9-9-9-9-xxxx--|
A|-7h9-9-9-9--7h9-9-9-9-xxxx--7h9-9-9-9--7h9-9-9-9-xxxx--|
D|-7h9-9-9-9--7h9-9-9-9-xxxx--7h9-9-9-9--7h9-9-9-9-xxxx--|

e|------------------------------------------|
B|------------------------------------------|
G|------------------------------------------|
D|-9p7-7-7-7--7p5-5-5-5-xxxx-4h5-5-5-5p4-2--|
A|-9p7-7-7-7--7p5-5-5-5-xxxx-4h5-5-5-5p4-2--|
D|-9p7-7-7-7--7p5-5-5-5-xxxx-4h5-5-5-5p4-2--|

Guitar.2
e|--------------------------------------------------------------------------|
B|--------------------------------------------------------------------------|
G|-9/11-11-11-11---9/11-11-11-11-xxxx---9/11-11-11-11---9/11-11-11-11-xxxx--|
D|-x/-x--x--x--x---x/-x--x--x--x-xxxx---x/-x--x--x--x---x/-x--x--x--x-xxxx--|
A|-7/-9--9--9--9---7/-9--9--9--9-xxxx---7/-9--9--9--9---7/-9--9--9--9-xxxx--|
D|--------------------------------------------------------------------------|

e|--------------------------------------------|
B|--------------------------------------------|
G|-11\9-9-9-9--9\7-7-7-7-xxxx--6/7-7-7-7\6-4--|
D|--x\x-x-x-x--x\x-x-x-x-xxxx--x/x-x-x-x\x-x--|
A|--9\7-7-7-7--7\5-5-5-5-xxxx--4/5-5-5-5\4-2--|
D|--------------------------------------------|

Pick scr*pe on the G string
Guitar.1
e|-----------------------------------------|
B|-----------------------------------------|\
G|-9h11-11-------12-12-12-11-11-11-9h11-9--| X4
D|---------9-9-9---------------------------|/
A|-----------------------------------------|
D|-----------------------------------------|

e|--------------------12--|
B|-----------------10-----|
G|-11-9-7-6~-6h7-7--------|
D|------------------------|
A|------------------------|
D|------------------------|

e|-----------------------------------------|
B|-----------------------------------------|
G|-9h11-11-------12-12-12-11-11-11-9h11-9--| 
D|---------9-9-9---------------------------|
A|-----------------------------------------|
D|-----------------------------------------|

e|------------|
B|------------|
G|-11-9-7-6~--|
D|------------|
A|------------|
D|------------|

This bit gets played 
e|------------|the same time
B|------------|as
G|------------|
D|------------|
A|-7h9-9-7-5--| <-
E|------------|
Guitar.2 plays this over the top on
the second time thorugh
e|-----------------------------------------------|
B|-15-10-10-15-10-10-15-10-10-15-10-10-14h15-14--| = X2
G|-----------------------------------------------|
D|-----------------------------------------------|
A|-----------------------------------------------|
D|-----------------------------------------------|

e|--------------|
B|-15-14-12-10--|
G|--------------|
D|--------------|
A|--------------|
D|--------------|

this bit
e|-----------------|
B|-10h12-14-12-10--| <-
G|-----------------|
D|-----------------|
A|-----------------|
E|-----------------|

Hope you enjoy the song and good luck
and please eighther comment or rate this tab, thanks.
            
Tabs too difficult? Try these video lessons and learn fast.


comments powered by Disqus
↑ Back to top | Tablatures and chords are parodies/interpretations of the original songs. You may use it for private study, scholarship, research or language learning purposes only