» » »

Big City Tabs (ver.3)

Artists:  A B C D E F G H I J K L M N O P Q R S T U V W X Y Z # 

Big City Tabs (ver.3)

Operation Ivy
Rating:
0/5 (0 votes)

Tabs too difficult? Try these video lessons and learn fast.
                This is one of my favourite Op Ivy songs, this is how i think it is played!
please rate this and make any comments

INTRO/VERSE
e|------------------------------------------------------------------------------|
B|------------------------------------------------------------------------------|
G|------------------------------------------------------------------------------|
D|------------------------2--------3-0-------------------------2--3-3-3-2-------|
A|------0--------2----3-3---3--3-3-----------0--------2----3-3-------------3-2--|
E|--1-1---1--3-3---3--------------------1-1----1--3-3----3----------------------|
 this is palm muted except from the last 6 notes!

e|------------------------|
B|------------------------|
G|------------------------| play this at end of the intro before Jesse starts 
D|------------------------| singing and before the chorus
A|------0---------2----2--|
E|--1-1---1---3-3---3-----|

CHORUS
e|--------------|-----------------------|
B|--------------|-----------------------|
G|--------5-----|-----------------------|
D|--3--5--5-----|--3>>>---5>>>----------|  >>> let ring, i think during the 2nd
A|--3--5--3-----|--3>>>---5>>>----------|      progression Lint strums the chords
E|--1--3--------|--1>>>---3>>>----------|      a few times after he lets them ring
    1st CHORD       2nd CHORD
   PROGRESSION      PROGRESSION

BRIDGE
e|-------------------------|------------------------------------------|
B|-------------------------|------------------------------------------|
G|---5-5-5--3--5--3-3------|--------------------5-5-5--3--5--3-3------|
D|---5-5-5--3--5--3-3--3---|---3-3-3-3-3-3-3-3--5-5-5--3--5--3-3--3---|
A|---3-3-3--1--3--1-1--3---|---3-3-3-3-3-3-3-3--3-3-3--1--3--1-1--3---|
E|---------------------1---|---1-1-1-1-1-1-1-1--------------------1---|
                              <---palm muted--->

thats it! the rhythm and order is really easy to figure out.Happy playing!
            
Tabs too difficult? Try these video lessons and learn fast.




comments powered by Disqus
↑ Back to top | Tablatures and chords are parodies/interpretations of the original songs. You may use it for private study, scholarship, research or language learning purposes only