» » »

Bombshell Tabs (ver.3)

Artists:  A B C D E F G H I J K L M N O P Q R S T U V W X Y Z # 

Bombshell Tabs (ver.3)

Operation Ivy
Rating:
0/5 (0 votes)

Tabs too difficult? Try these video lessons and learn fast.
                Band: Operation Ivy
Tuning: Standard E A D G B E

That's a great song by Op Ivy. f**kin' short and quiet simple
to play with a damn cool solo too... So here's the tab:

 | Intro                                               |
E|--------------|--------------------------------------|
B|--------------|--------------------------------------|
G|--------------|--------------------------------------|
D|---7----------|---7----------------------------------|
A|---5--5--77---|---5--5--77~--------------------------|
E|------3--55---|------3--55~--------------------------|
 | Verse                                            2x |
E|-----------------------|-----------------------------|
B|-----------------------|-----------------------------|
G|-----------------------|-----------------------------|
D|---7777----------------|---7777----------------------|
A|---5555-5555-77777777--|---5555-5555-77777777--------|
E|--------3333-55555555--|--------3333-55555555--------|

 | Chorus                                                 |
E|--------------|-------------|-------------|-------------|
B|--------------|-------------|-------------|-------------|
G|--------------|-------------|-------------|-------------|
D|---777--------|--777--------|--777--------|--777--------|
A|---555-5-777--|--555-5-777--|--555-5-777--|--555-5-777--|
E|-------3-555--|------3-555--|------3-555--|------3-555--|
 | Solo                                                   |
E|--------------------------------------------------------|
B|--------------------------------------------------------|
G|-------7-----7-9-----7---7-9-9--------------------------|
D|---7-9---7-9-----7~----9-------7~-----------------------|
A|--------------------------------------------------------|
E|--------------------------------------------------------|
 | Interlude                                              |
E|---------------|----------------------------------------|
B|---------------|----------------------------------------|
G|---------------|----------------------------------------|
D|---7-----------|---7------------------------------------|
A|---5--5--7-7---|---5--5--7~-----------------------------|
E|------3--5-5---|------3--5~-----------------------------|
 | Outro                                                  |
E|--------------------------------------------------------|
B|--------------------------------------------------------|
G|--------------------------------------------------------|
D|---777---7----------------------------------------------|
A|---555-5~5----------------------------------------------|
E|-------3~-----------------------------------------------|

Order: Intro - Verse - Chorus - Verse - Chorus -
           Solo - Interlude - Verse - Outro

I think there's nothing to say - the songs really easy and clear
so please just play it fast and enjoy Operation Ivy!

If you have any questions etc. or just wanna talk about some sh*t:
            
Tabs too difficult? Try these video lessons and learn fast.


comments powered by Disqus
↑ Back to top | Tablatures and chords are parodies/interpretations of the original songs. You may use it for private study, scholarship, research or language learning purposes only