» » »

Hedgecore Tabs (ver.1)

Artists:  A B C D E F G H I J K L M N O P Q R S T U V W X Y Z # 

Hedgecore Tabs (ver.1)

Operation Ivy
Rating:
0/5 (0 votes)

Tabs too difficult? Try these video lessons and learn fast.
                =0D
CHORDS
=0D
     A5    A5 (use either one)     D5
|-------------------------------------------|
|----------2--------------------------------|
|----------2-----------------------7--------|
|----7-----2-----------------------7--------|
|----7-----0-----------------------5--------|
|----5--------------------------------------|
=0D
Intro:  A5, A5, A5, let ring
|-------------------------------------------|
|----------2--------------------------------|
|----------2-----------------------7--------|
|----7-----2-----------------------7--------|
|----7-----0-----------------------5--------|
|----5--------------------------------------|
            
Tabs too difficult? Try these video lessons and learn fast.




comments powered by Disqus
↑ Back to top | Tablatures and chords are parodies/interpretations of the original songs. You may use it for private study, scholarship, research or language learning purposes only