» » »

Cat Scratch Fever Tabs (ver.2)

Artists:  A B C D E F G H I J K L M N O P Q R S T U V W X Y Z # 

Cat Scratch Fever Tabs (ver.2)

Pantera
Rating:
0/5 (0 votes)

Tabs too difficult? Try these video lessons and learn fast.
                Standard Tuning
   
Intro and Chorus:
   E|------------------------------------------------------------------|
   B|------------------------------------------------------------------|
   G|------------2-4-5-5-2-4-5----------------2-4-5-5-5-4-2---|
   D|------------2-4-5-5-2-4-5----------------2-4-5-5-5-4-2---|
   A|------------0-2-3-3-0-2-3----------------0-2-3-3-3-2-0---|
   E|-0-3-4--------------------------0-3-4-------------------------|


Verse
   E|----------------------------------------------|
   B|----------------------------------------------|
   G|----2--2--5--5--2--2--5--5--2--5--2----|
   D|----2--2--5--5--2--2--5--5--2--5--2----|
   A|----0--0--3--3--0--0--3--3--0--3--0----|
   E|----------------------------------------------| 
            
Tabs too difficult? Try these video lessons and learn fast.




comments powered by Disqus
↑ Back to top | Tablatures and chords are parodies/interpretations of the original songs. You may use it for private study, scholarship, research or language learning purposes only