» » »

Never Said It Tabs (ver.2)

Artists:  A B C D E F G H I J K L M N O P Q R S T U V W X Y Z # 

Never Said It Tabs (ver.2)

Papa Roach
Rating:
0/5 (0 votes)

Tabs too difficult? Try these video lessons and learn fast.
                Drop D Tuning


Intro X1

|-------------------------------------------------------------------------------------------|
|-------------------------------------------------------------------------------------------|
|-------------------------------------------------------------------------------------------|
|----------55------------------------000 -----------------555---------------000--------|
|----------55------------------------000------------------555---------------000--------|
|----------55------------------------000------------------555---------------000--------|

Verse X8

|-------------------------------------------------------------------------------------------|
|-------------------------------------------------------------------------------------------|
|-------------------------------------------------------------------------------------------|
|--------0-5-0--7—0-0-------88------00-----------------------------------------------|
|--------0-5-0--7—0-0-------88------00-------------7--8--7--5----------------------|
|--------0-5-0--7—0-0-------88------00-----------------------------------------------|


Chorus X4

|-------------------------------------------------------------------------------------------|
|-------------------------------------------------------------------------------------------|
|-------------------------------------------------------------------------------------------|
|-----0-5-0--7—0-7-8------0--7--7--8--7--0--------------0-5-0--7---0-7-8--------|
|-----0-5-0--7—0-7-8------0--7--7--8--7--0--------------0-5-0--7---0-7-8--------|
|-----0-5-0--7—0-7-8------0--7--7--8--7--0--------------0-5-0--7---0-7-8--------|

|-------------------------------------------------------------------------------------------|
|-------------------------------------------------------------------------------------------|
|-------------------------------------------------------------------------------------------|
|-----0--7--7--8--7--0-------------------------------------------------------------------|
|-----0--7--7--8--7--0-------------------------------------------------------------------|
|-----0--7--7--8--7--0-------------------------------------------------------------------|
            
Tabs too difficult? Try these video lessons and learn fast.




comments powered by Disqus
↑ Back to top | Tablatures and chords are parodies/interpretations of the original songs. You may use it for private study, scholarship, research or language learning purposes only