» » »

Orange Drive Palms Tabs (ver.2)

Artists:  A B C D E F G H I J K L M N O P Q R S T U V W X Y Z # 

Orange Drive Palms Tabs (ver.2)

Papa Roach
Rating:
0/5 (0 votes)
Tabs too difficult? Try these video lessons and learn fast.
                Orange Drive Palms
Papa Roach
Tuning: Drop-d (D,A,D,G,B,e)

Intro
e|-----------------------------------------------
B|-----------------------------------------------
G|-----------------------X4----------------------
D|-------5-4----4-4------------------------------
A|-2-2-2-----2--2-2------------------------------
D|-----------------------------------------------
pm . . .     .

Pre-verse riff/Chorus (listen to song for chorus variations)
e|-----------------------------------------------
B|-----------------------------------------------
G|-----------------------------------------------
D|-4--7--12--11--9--11---------------------------
A|-2--5--10--9---7--9----------------------------
D|-----------------------------------------------

Verse
e|-----------------------------------------------
B|-----------------------------------------------
G|-----------------------------------X8----------
D|-------5-4-------4-4-------4-4-----------------
A|-2-2-2-----3-3-3-----4-4-4---------------------
D|-----------------------------------------------
pm . . .     . . .     . . .

Bridge after Verse (3:31)
e|---------------------------------------------------------
B|---------------------------------------------------------
G|------------------*pickslide------------------*pickslide-X4
D|-4-4-4-4--4-4-4-4------------5-5-5-5--5-5-5-5------------
A|-2-2-2-2--2-2-2-2------------3-3-3-3--3-3-3-3------------
D|---------------------------------------------------------

Bass and drum fill

Bridge after Chorus(clean) (for distortion part add the (4) notes)
e|-----------------------------------------------
B|-----------------------------------------------
G|-----------------------------------------------
D|--------5-(4)------4-(4)----4-(4)---------------
A|-2-2-2-------3-3-3------4-4--------------------
D|-----------------------------------------------

Clean Outro part
e|-----------------------------------------------
B|-----------------------------------------------
G|-----------------------------------------------
D|---4-5-4-------4-5-4-5-------------------------
A|-2-------2---3---------3-----------------------
D|-----------------------------------------------

Distorted variation in clean (use artificial harmonix for odd sound)
e|-----------------------------------------------
B|-----------------------------------------------
G|----------5------------------------------------
D|----2h4-5---5-4h5p4----------------------------
A|-2h3----------------3--------------------------
D|-----------------------------------------------

Distorted Outro
e|-----------------------------------------------
B|-----------------------------------------------
G|--------5--------------------------------------
D|----2h4---5-4h5p4-4----------------------------
A|-2h3--------------2----------------------------
D|-----------------------------------------------

Structure
Intro
Pre-verse riff
Verse
Chorus
Verse
Bridge after Verse
Chorus
Bridge after Chorus
Chorus
Verse
Chorus
Clean outro X3 and 1/2
Variation
Clean outro X3 and 1/2
Variation
Clean outro X2 and 1/2
Variation
Clean outro X2 and 1/2
Variation X5
distorted Outro
            
Tabs too difficult? Try these video lessons and learn fast.


comments powered by Disqus
↑ Back to top | Tablatures and chords are parodies/interpretations of the original songs. You may use it for private study, scholarship, research or language learning purposes only