» » »

Escuela De Calor Tabs (ver.2)

Artists:  A B C D E F G H I J K L M N O P Q R S T U V W X Y Z # 

Escuela De Calor Tabs (ver.2)

Radio Futura
Rating:
4/5 (7 votes)

Tabs too difficult? Try these video lessons and learn fast.
                Esta canción es buenisima y muy fácil, solo debes de encontrar el ritmo. La afinación de 
guitarra debe de ser Standard. Y pues bueno, si hay dudas o sugerencias he aqui mi 

e----------------------------------|
B-7 full-7-5-----------------------|
G-----------6----------------------|
D-----------------5-6full-6--------|
A------------55h6------------------|
E----------------------------------|


e----------------------------------|
B-7 full-7-5-----------------------|
G-----------6----------------------|
D----------------------------------|
A------------55h6-6full-4----------|
E----------------------------------|


e-------------------------------------|
B-------------------------------------|
G-------------------------------------|
D-44-55-44-55-44-55-44-55-44-77777777-|
A-------------------------------------|
E-------------------------------------|

e------------------------------------|
B------------------------------------|
G------------------------------------|
D-------3----------------------------|
A---4-5---5-4-5-----3-5--------------|
E-3-------------5-5-----2-3----------|
            
Tabs too difficult? Try these video lessons and learn fast.


comments powered by Disqus
↑ Back to top | Tablatures and chords are parodies/interpretations of the original songs. You may use it for private study, scholarship, research or language learning purposes only