» » »

Burn Bass tabs (ver.2)

Artists:  A B C D E F G H I J K L M N O P Q R S T U V W X Y Z # 

Burn Bass tabs (ver.2)

Rancid
Rating:
0/5 (0 votes)

Tabs too difficult? Try these video lessons and learn fast.
                Intro and        "Yeah...I'm in hell." part         
G-----------------------
D-----3-5-3-5-6-5-3-5-3--
A-3-6-----------------------6                      x4
E-----------------------

"Why can't I?" part
G--------------------------------------------------------------
D------------2-0-----2-0-----2-0---------------2-0-----2-0----------
A----0-2-3-----2-3-----2-3------3-----0-2-3-----2-3------2---3-2--
E-1-3---------------------------------1-3-------------------------3-----3

Chorus and      "Thirteen red and white stripes flyin" part
G------------------------------------------------------------------
D--------------------------------------------------------------6-5-5-5-6-5-3-----
A-3-3-3-3-------------------------------3-3-3-3-5-6-6-6------------------6-5-
E-----------4-4-4-4-3-3-3-3-2-3-3-3-----------------------------------
            
Tabs too difficult? Try these video lessons and learn fast.


comments powered by Disqus
↑ Back to top | Tablatures and chords are parodies/interpretations of the original songs. You may use it for private study, scholarship, research or language learning purposes only