» » »

Name Bass tabs (ver.1)

Artists:  A B C D E F G H I J K L M N O P Q R S T U V W X Y Z # 

Name Bass tabs (ver.1)

Rancid
Rating:
0/5 (0 votes)

Tabs too difficult? Try these video lessons and learn fast.
                Intro:
G-------------------------------------------------------------------------------
D-------------------------------------------------------------------------------
A------------2------------------2-------------------222-------------------2222--
E----2-----------------2------------------222-----------------2222--------------

Interlude:
G---------------------------------
D-----------------1-4-1-----------
A-----1-4-1---2-------------------
E--2------------------------------

Chorus
G--------------------------------------------------------------------------
D--------------------------------------------------------------------------
A---------------------------------------0-0-0-0-0-0-0-0--2222222222222222--
E----0-0-0-0-0-0-0-0--2-2-2-2-2-2-2-2--------------------------------------

Verse
G----------------------
D—--2222-44--------------
A-----------00----------
E----------------------

Bridge
G---------------------------------------------7-----------------------------
D------------------------------------------------------7----5---------------
A---5------------------------------5-------------------------------------2--
E------------5--------3-----------------------------------------------------

Song Structure:
Intro x1
Interlude x4
Chorus x2
Verse x4
Bridge x1
Chorus x2 
Verse x4 
Bridge x1 
Chorus x2 
Interlude x8
Chorus x2

This is a really easy rancid song, have fun.
            
Tabs too difficult? Try these video lessons and learn fast.


comments powered by Disqus
↑ Back to top | Tablatures and chords are parodies/interpretations of the original songs. You may use it for private study, scholarship, research or language learning purposes only