>
 >
You And I

You And I Guitar Tabs

T.A.T.U - You And I chords, tabs, tablatures, lyrics

Guitar lessons | Add/correct | Request | Top 50 tabs Artists:  A B C D E F G H I J K L M N O P Q R S T U V W X Y Z 0-9

You And I Guitar Tabs – T.A.T.U

CD, Sheet music, Poster

Do you like You And I? Share with your friends now
Tabs
 W= REDONDAS, X= NOTA MUERTA, ~= VIBRATO, L= LIGADO




     Q    E  S E  S E  Q       Q    E  S E  S E  Q     
E||-------------------------|-------------------------|
B||-------------------------|-------------------------|
G||-------------------------|--5----5--5-5--5-5--5----|
D||--3----3--3-3--3-3--3----|--5----5--5-5--5-5--5----|
A||--3----3--3-3--3-3--3----|--3----3--3-3--3-3--3----|
E||--1----1--1-1--1-1--1----|-------------------------|


  Q    E  S E  S E  Q       Q    E  S E  S E  Q       Q    E  S E  S E  Q     
-------------------------|-------------------------|---------------------|
-------------------------|-------------------------|---------------------|
--3----3--3-3--3-3--3----|--6----6--6-5--5-5--5----|---------------------|
--3----3--3-3--3-3--3----|--6----6--6-5--5-5--5----|--3----3--3-3--3-3--3|
--1----1--1-1--1-1--1----|--4----4--4-3--3-3--3----|--3----3--3-3--3-3--3|
-------------------------|-------------------------|--1----1--1-1--1-1--1|


  Q    E  S E  S E  Q       Q    E  S E  S E  Q       Q    E  S E  S E  Q     
-------------------------|-------------------------|---------------------|
-------------------------|-------------------------|---------------------|
--5----5--5-5--5-5--5----|--3----3--3-3--3-3--3----|--6----6--6-5--5-5--5|
--5----5--5-5--5-5--5----|--3----3--3-3--3-3--3----|--6----6--6-5--5-5--5|
--3----3--3-3--3-3--3----|--1----1--1-1--1-1--1----|--4----4--4-3--3-3--3|
-------------------------|-------------------------|---------------------|


   E  E  E  S  E  S  E  E  E     E  E  E  S E  S E  E  E   
---------8--------------8-----|--------8------------8-----|
------9-----9-----9--------9--|-----9-----9----9-------9--|
--10----------10----10--------|--9----------9----9--------|
------------------------------|---------------------------|
------------------------------|---------------------------|
------------------------------|---------------------------|


  E  E  E  S E  S E  E  E     E  E  E  S E  S E  E  E   
--------8------------8-----|--------8------------8-----|
-----9-----9----9-------9--|-----9-----9----9-------9--|
--8----------8----8--------|--7----------7----7--------|
---------------------------|---------------------------|
---------------------------|---------------------------|
---------------------------|---------------------------|


     E  E  E  S  E  S  E  E  E     E  E  E  S E  S E  E  E   
|----------8--------------8-----|--------8------------8-----|
|-------9-----9-----9--------9--|-----9-----9----9-------9--|
|*--10----------10----10--------|--9----------9----9--------|
|*------------------------------|---------------------------|
|-------------------------------|---------------------------|
|-------------------------------|---------------------------|


  E  E  E  S E  S E  E  E     E  E  E  S E  S E  E  E       W                  
--------8------------8-----|--------8------------8------||------------|
-----9-----9----9-------9--|-----9-----9----9-------9---||------------|
--8----------8----8--------|--7----------7----7--------*||------------|
---------------------------|---------------------------*||--3~--------|
---------------------------|----------------------------||------------|
---------------------------|----------------------------||------------|


  W                    W                    Q    E  H        E   
--------------------|--------------------|----------------------|
--------------------|--------------------|----------------------|
--------------------|--------------------|----------------------|
--5~----------------|--3~----------------|--5----6--8--------L--|
--------------------|--------------------|----------------------|
--------------------|--------------------|----------------------|


  Q    E  S E  S E  Q       Q    E  S E  S E  Q       Q    E  S E  S E  Q     
-------------------------|-------------------------|---------------------|
-------------------------|-------------------------|---------------------|
-------------------------|--5----5--5-5--5-5--5----|--3----3--3-3--3-3--3|
--3----3--3-3--3-3--3----|--5----5--5-5--5-5--5----|--3----3--3-3--3-3--3|
--3----3--3-3--3-3--3----|--3----3--3-3--3-3--3----|--1----1--1-1--1-1--1|
--1----1--1-1--1-1--1----|-------------------------|---------------------|


  Q    E  S E  S E  Q       Q    E  S E  S E  Q       Q    E  S E  S E  Q     
-------------------------|-------------------------|---------------------|
-------------------------|-------------------------|---------------------|
--6----6--6-5--5-5--5----|-------------------------|--5----5--5-5--5-5--5|
--6----6--6-5--5-5--5----|--3----3--3-3--3-3--3----|--5----5--5-5--5-5--5|
--4----4--4-3--3-3--3----|--3----3--3-3--3-3--3----|--3----3--3-3--3-3--3|
-------------------------|--1----1--1-1--1-1--1----|---------------------|


  Q    E  S E  S E  Q       Q    E  S E  S E  Q     
-------------------------|-------------------------|
-------------------------|-------------------------|
--3----3--3-3--3-3--3----|--6----6--6-5--5-5--5----|
--3----3--3-3--3-3--3----|--6----6--6-5--5-5--5----|
--1----1--1-1--1-1--1----|--4----4--4-3--3-3--3----|
-------------------------|-------------------------|


     E  E  E  S  E  S  E  E  E     E  E  E  S E  S E  E  E   
|----------8--------------8-----|--------8------------8-----|
|-------9-----9-----9--------9--|-----9-----9----9-------9--|
|*--10----------10----10--------|--9----------9----9--------|
|*------------------------------|---------------------------|
|-------------------------------|---------------------------|
|-------------------------------|---------------------------|


  E  E  E  S E  S E  E  E     E  E  E  S E  S E  E  E   3x  W                  
--------8------------8-----|--------8------------8------||-------------|
-----9-----9----9-------9--|-----9-----9----9-------9---||-------------|
--8----------8----8--------|--7----------7----7--------*||-------------|
---------------------------|---------------------------*||--3~---------|
---------------------------|----------------------------||-------------|
---------------------------|----------------------------||-------------|


  W                    W                    Q    E  H        E   
--------------------|--------------------|----------------------|
--------------------|--------------------|----------------------|
--------------------|--------------------|----------------------|
--5~----------------|--3~----------------|--5----6--8--------L--|
--------------------|--------------------|----------------------|
--------------------|--------------------|----------------------|


    Q    E  S E  S E  Q       Q    E  S E  S E  Q       Q    E  S E  S E  Q     
|--------------------------|-------------------------|---------------------|
|--------------------------|-------------------------|---------------------|
|*-------------------------|--5----5--5-5--5-5--5----|--3----3--3-3--3-3--3|
|*--3----3--3-3--3-3--3----|--5----5--5-5--5-5--5----|--3----3--3-3--3-3--3|
|---3----3--3-3--3-3--3----|--3----3--3-3--3-3--3----|--1----1--1-1--1-1--1|
|---1----1--1-1--1-1--1----|-------------------------|---------------------|


  Q    E  S E  S E  Q       Q    E  S E  S E  Q       Q    E  S E  S E  Q     
-------------------------|-------------------------|---------------------|
-------------------------|-------------------------|---------------------|
--6----6--6-5--5-5--5----|-------------------------|--5----5--5-5--5-5--5|
--6----6--6-5--5-5--5----|--3----3--3-3--3-3--3----|--5----5--5-5--5-5--5|
--4----4--4-3--3-3--3----|--3----3--3-3--3-3--3----|--3----3--3-3--3-3--3|
-------------------------|--1----1--1-1--1-1--1----|---------------------|


  Q    E  S E  S E  Q       Q    E  S E  S E  Q       
-------------------------|--------------------------||
-------------------------|--------------------------||
--3----3--3-3--3-3--3----|--6----6--6-5--5-5--5----*||
--3----3--3-3--3-3--3----|--6----6--6-5--5-5--5----*||
--1----1--1-1--1-1--1----|--4----4--4-3--3-3--3-----||
-------------------------|--------------------------||





Comments


Popular T.A.T.U tabs & chords
How Soon Is Now? 1 Chords
Friend Or Foe 2 Tabs
Not Gonna Get Us 1 Tabs
Obezyanka Nol Tabs
30 Minutes Ukulele
Clowns Can You See Me Now Ukulele
Jugoslavia Ukulele
Ne Ver Ne Bojsya Ne Prosi Ukulele
Nichya Ukulele
We Shout Ukulele


Song lyrics



↑ Back to top | Tablatures and chords are parodies/interpretations of the original songs. You may use it for private study, scholarship, research or language learning purposes only
© 2014 AZChords.com Contact us | Privacy policy | DMCA | Add/correct tabs | Request tabs | Top 50 tabs