» » »

Antifreeze Tabs (ver.1)

Artists:  A B C D E F G H I J K L M N O P Q R S T U V W X Y Z # 

Antifreeze Tabs (ver.1)

Unwound
Rating:
0/5 (0 votes)
Tabs too difficult? Try these video lessons and learn fast.
                
verse:
bass:
|---------------------------------|
|---------------------------------|
|-----------------7---------------|
|-2-2-2-2-2-2---------8---7-------|

guitar (rough guess)
|---------------------------------|
|---------------------------------|
|-----------------2-------4-------|
|-----------------2---4---4-------|
|-4-4-4-4-4-4---------4-----------|
|-2-2-2-2-2-2---------------------|
p.m.---------|
p.m. = palm mute - rest the edge of your right hand
palm against the strings while you pick

chorus - first half:
bass
|-------------------------------------------------|
|-------------------------------------------------|
|-9--9--9--9--9--9--9--9--7--7--7--7--7--7--7--7--|
|-------------------------------------------------|

|-------------------------------------------------|
|-------------------------------------------------|
|-9--9--9--9--9--9--9--9--5--5--5--5--5--5--5--5--|
|-------------------------------------------------|

guitar
|-------------------------------------------------|
|-------------------------------------------------|
|-11s13-13-13-13s11-11s9--9--9--9--9-s16-16-16-16-|
|-------------------------------------------------|
|-9-s11-11-11-11s9--9-s7--7--7--7--7-s14-14-14-14-|
|-------------------------------------------------|
s = slide to the note

|-------------------------------------------------|
|-------------------------------------------------|
|-18-18-18-18-18-18-18-18-18-18-18-18-18-18-18-18-|
|-------------------------------------------------|
|-16-16-16-16-16-16-16-16-16-16-16-16-16-16-16-16-|
|-------------------------------------------------|
lyric:             "try antifreeze..."

chorus - second half:
bass
|-------------------------------------------------|
|-------------------------------------------------|
|-9--9--9--9--9--9--9--9--7--7--7--7--7--7--7--7--|
|-------------------------------------------------|
                      "it's under your seat"

|-------------------------------------------------|
|-------------------------------------------------|
|-9--9--9--9--9--9--9--9--5--5--5--5--12-12-12-12-|
|-------------------------------------------------|
                      "naked at your feet"

guitar (3rd fret harmonics)
|-x-x-x-x-x-x-x-|
|-x-x-x-x-x-x-x-|
|-x-x-x-x-x-x-x-|
|-x-x-x-x-x-x-x-|
|-x-x-x-x-x-x-x-|
|-x-x-x-x-x-x-x-|
rake the strings with the pick while holding your left hand
above the strings around the third fret (touch the strings but
don't press them all the way down)

middle
bass
|---------------------------------|
|---------------------------------|
|-----------------5-5-5-5-4-4-0-0-|
|-2-2-2-2-2-2-2-2-----------------|

guitar 
|---------------------------------|
|---------------------------------|
|---------------------------------|
|---------------------------------|
|-4-4-4-4-4-4-4-4-4-4-4-4-4-4-4-4-|
|-2-2-2-2-2-2-2-2-2-2-2-2-2-2-2-2-|
p.m. all

|-----------------------------------------------------------------|
|-----------------------------------------------------------------|
|-----4-------4-------4-------4-------4-------4---4---4---4---4---|
|-----4-------4-------4-------4-------4-------4---4---4---4---4---|
|-4-4-4---4-4-4---4-4-4---4-4-4---4-4-4---4-4-4---4---4---4---4---|
|-2-2-2---2-2-2---2-2-2---2-2-2---2-2-2---2-2-2---2---2---2---2---|
p.m.-|  p.m.-|  p.m.-|  p.m.-|  p.m.-|  p.m.-|  

as usual, listen for the order and the nuances. justin gets pretty
free with his guitar on this song, so it might be best to just
whack the strings at random instead of playing chords, especially 
near the end.
            
Tabs too difficult? Try these video lessons and learn fast.


comments powered by Disqus
↑ Back to top | Tablatures and chords are parodies/interpretations of the original songs. You may use it for private study, scholarship, research or language learning purposes only