>
 >
October All Over

October All Over Guitar Tabs

Unwound - October All Over chords, tabs, tablatures, lyrics

Guitar lessons | Add/correct | Request | Top 50 tabs Artists:  A B C D E F G H I J K L M N O P Q R S T U V W X Y Z 0-9

October All Over Guitar Tabs – Unwound

CD, Sheet music, Poster

Do you like October All Over? Share with your friends now
Tabs


Alternate Tuning: F# A E G# A E


Guitar
Verse Riff:
e |------------------------------------------------|
A |------------------------------------------------|
G#|------------------------------------------------|
E |-------17----16-14----------14------------------|
A |----16----16-------------15----15-14~-----/12---|
F#|-0----------------------------------------------|
+
e |------------------------------------------------|
A |------------------------------------------------|
G#|-------------10----------------------10---------|
E |-------12-------12----12-------12-------12----12|
A |-11/12----12-------12----11/12----12-------12---|
F#|------------------------------------------------|
+
Last measure:
e |------------------------------------------------|
A |------------------------------------------------|
G#|-------------10------------------(10-10)--(10)--|
E |-------12-------12----12----------12-12----12---|
A |-11/12----12-------12-------------12-12\11-11---|
F#|------------------------------------------------|
+ * with tape delay effect
e |------0-----------------------------------------|
A |-----0------------------------------------------|
G#|----0-------------------------------------------|
E |---9--------------------------------------------|
A |--9---------------------------------------------|
F#|-0----------------------------------------------|



Chorus Riff:
  * all harmonics
e |------------------------------------------------|
A |---------------------------------------------|
G#|---------------------------------------|
E |---------------------------------|
A |---------------------------------|
F#|------------------------------------------|
+
Chorus Riff (Variation)
  * all harmonics
e |------------------------------------------------|
A |---------------------------------------------|
G#|------------------------------------|
E |---------------------------------|
A |------------------------------------|
F#|------------------------------------------|



Solo:
  * with tape delay effect
e |---------------------------------------------------||
A |---------------------------------------------------||
G#|---------------------------------------------------|| x 4
E |----5-----5--5--5s\4--4--4-----5--5--5--5s\4--4--4-||
A |---------------------------------------------------||
F#|-0-----0--------------------0----------------------||
+
e |---------------------------------------------------|
A |---------------------------------------------------|
G#|-------------------------------5--5--5--5-p3--3--5-|
E |----4--4--4--4-p2--2--4----------------------------|
A |---------------------------------------------------|
F#|-0--------------------------0----------------------|
+
e |---------------------------------------------------|
A |----11-11-11-11-9--9--11/14----14/16-16-16-16-16-16|
G#|----0--0--0--0--0--0--0--------0--0--0--15-15-13-13|
E |---------------------------------------------------|
A |---------------------------------------------------|
F#|---------------------------------------------------|
+
e |---------------------------------------------------|
A |\14-14-14-14---------------------------------------|
G#|\12-12-12-12---------------------------------------|
E |---------------------------------------------------|
A |---------------------------------------------------|
F#|---------------------------------------------------|
+
e |---------------------------------------------------|
A |---------------------------------------------------|
G#|-------------------------------5--5--5--5-p3--3--5-|
E |----4--4--4--4-p2--2--4----------------------------|
A |---------------------------------------------------|
F#|-0--------------------------0----------------------|
+
e |---------------------------------------------------|
A |----11-11-11-11-9--9--11/14----14/16-16-16-16-16-16|
G#|----0--0--0--0--0--0--0--------0--0--0--15-15-13-13|
E |---------------------------------------------------|
A |---------------------------------------------------|
F#|---------------------------------------------------|
+
e |---------------------------------------------------|
A |\14-14-14-14---------------------------------------|
G#|\12-12-12-12---------------------------------------|
E |---------------------------------------------------|
A |---------------------------------------------------|
F#|---------------------------------------------------|
+
e |---------------------------------------------------|
A |---------------------------------------------------|
G#|---------------------------------------------------|
E |-------------------------14------------------------|
A |----12-12-12-12p11-11h12---------------------------|
F#|-0-------------------------------------------------|
+
e |---------------------------------------------------|
A |---------------------------------------------------|
G#|---------------------------------------------------|
E |-------------------------12------------------------|
A |----12-12-12-12p11-11h12---------------------------|
F#|-0-------------------------------------------------|
+
e |---------------------------------------------------|
A |---------------------------------------------------|
G#|---------------------------------------------------|
E |-------------------------14------------------------|
A |----12-12-12-12p11-11h12---------------------------|
F#|-0-----0-------------------------------------------|
+
e |---------------------------------------------------|
A |---------------------------------------------------|
G#|---------------------------------------------------|
E |-------------------------12------------------------|
A |----12-12-12-12p11-11h12---------------------------|
F#|-0-------------------------------------------------|



Alternate Verse Riff:
  * with tremolo effect live
e |------------------------------------------------|
A |------------------------------------------------|
G#|------------------------------------------------|
E |-------5-----4--2~----------2-------------------|
A |----4-----4--------------3-----3--2~-------0----|
F#|-0----------------------------------------------|
+
e |------------------------------------------------|
A |------------------------------------------------|
G#|-------------0----------------------------------|
E |-------0--------0-----0--------0----------------|
A |------------------------------------------------|
F#|-2-/3-----3--------3-----2-/3-----3--3-\2--2----|
+
Last measure
e |------------------------------------------------|
A |------------------------------------------------|
G#|-------------0----------------------------------|
E |-------0--------0-----0-----------0--0--0--0----|
A |----------------------------------x--x--x--x----|
F#|-2-/3-----3--------3--------------3--3-\2--2----|
+ * with tape delay effect (in addition)
e |------0-----------------------------------------|
A |-----0------------------------------------------|
G#|----0-------------------------------------------|
E |---4--------------------------------------------|
A |--4---------------------------------------------|
F#|-0----------------------------------------------|



Song structure:
Verse Riff x 6
Chorus Riff x 4
Verse Riff I x 4
Solo
Chorus Riff x 4
Alternate Verse Riff x 4
Verse Riff I x 4



That's it.  Please feel free to leave any comments, questions, or requests.
Cheers!
-Bennyshambles78-





Comments


Popular Unwound tabs & chords
What Went Wrong Chords
Arboretum Tabs
Dragnalus Tabs
Fingertips Tabs
Kantina Tabs
New Energy Tabs
Swan Tabs
Unauthorised Autobiography Tabs
Unauthorized Autobiography Tabs
What Went Wrong Ukulele


Song lyrics



↑ Back to top | Tablatures and chords are parodies/interpretations of the original songs. You may use it for private study, scholarship, research or language learning purposes only
© 2014 AZChords.com Contact us | Privacy policy | DMCA | Add/correct tabs | Request tabs | Top 50 tabs