» » »

Rumor Mill Tabs (ver.1)

Artists:  A B C D E F G H I J K L M N O P Q R S T U V W X Y Z # 

Rumor Mill Tabs (ver.1)

We Are The In Crowd
Rating:
5/5 (4 votes)

Tabs too difficult? Try these video lessons and learn fast.
                We Are The In Crowd
Rumour Mill
Louis Anacoura


Intro I
e|--9-----------------------6h7-6----|
B|--------7-----6-----7-----------7--|
G|----6-6---6-6---6-6---6-6----------|  x3/4
D|-----------------------------------|
A|-----------------------------------|
E|-----------------------------------|
      . .   . .   . .   . .

Intro II
e|--------------------------|------------------|
B|--13-10-13-10-11--6-11-6--|--13-10-13-10-11--|
G|--x--x--x--x--x---x-x--x--|--x--x--x--x--x---|
D|--11-8--11-8--9---4-9--4--|--11-8--11-8--9---|
A|--------------------------|------------------|
E|--------------------------|------------------|

Verse I
(Guitar I)
e|---------------4----------------------|
B|------7-----------------6--------7----|
G|----6---6----6---6----6---6----6---6--|  x2
D|--4--------4--------4--------9--------|
A|----(x4)-----(x2)-----(x2)-----(x8)---|
E|--------------------------------------|

verse I
(Guitar II)
e|--------------------------------|
B|--------------------------------|
G|--11-11----11-11----------------|
D|--11-11----11-11----4444-9999---|
A|--9--9-----9--9-----4444-9999---|
E|--------------------2222-7777---|

Pre-Chorus
(Guitar I)
e|-----------------------|
B|-----------------------|
G|--8---4---11-10-11-10--|
D|--x---x---x--x--x--x---|
A|--6---2---9--8--9--8---|
E|-----------------------|

Pre-Chorus
(Guitar II)
e|------------------------|
B|------------------------|
G|--8---11---11-10-11-10--|
D|--x---x----x--x--x--x---|
A|--6---9----9--8--9--8---|
E|------------------------|

Pre-Chorus (I & II)
e|---------------------------------|
B|---------------------------------|
G|--10----11----13-----x-x-x-(16)--|
D|--x--x4-x--x4-x--x4--x-x-x-(x )--|
A|--8-----9-----11-----x-x-x-(14)--|
E|---------------------------------|

Only difficult timing bit in the song coming up. Notice above there are only
15 beats, thats because the first beat in the chorus is actually played where 
highlighted. I will not list the strumming pattern below for this reason. If you
listen to the song you can deffinitely hear the changes though, so that's your best
bet. I have tried to make it a bit easier by using more dashes for longer strums, but
use this as a guide, 3 times as many dashes might not mean 3 times the strumming.

Chorus
(Guitar I)
e|--------------------------------------------|
B|--------------------------------------------|
G|--16--15--13--15-11-8----16--15---10-11-13--|
D|--x---x---x---x--x--x----x---x----x--x--x---|
A|--14--13--11--13-9--6----14--13---8--9--11--|
E|--------------------------------------------|

Chorus
(Guitar II)
e|--------------------------------|
B|--------------------------------|
G|--4-11-6-8---4-11-6-------------|
D|--4-11-6-8---4-11-6-------------|
A|--2-9--4-6---2-9--4-------------|
E|--------------------------------|

Chorus
(Guitar I)
e|--9-----------------------6h7-6----|
B|--------7-----6-----7-----------7--| (I know this isn't right but it's too quiet
G|----6-6---6-6---6-6---6-6----------|  so you can get away with any variation of
D|-----------------------------------|  these notes and any others you can maybe decipher)
A|-----------------------------------|
E|-----------------------------------|

Chorus
(Guitar II)
e|--------------|
B|----------(*)-| (*) I play alot of songs with power chords and I think these are
G|--4-----6--8--|     really useful, but I don't seem to see them often. Usually I'll
D|--4--4--6--8--|     only strum 3 notes at any one time, (i.e 668 or 688), but 
A|--2--4--4--6--|     4 notes still sounds good. In the song where Tay says 'better
E|-----2--4--6--|     for me' the extra bass seems to fit better than a standard D#.

Chorus
(Guitar I)
e|------------|
B|------------|
G|--4--11--6--|
D|--4--11--6--|
A|--2--9---4--|
E|------------|

Chorus
(Guitar II)
e|--------------------|
B|--------------------|
G|--16--15--10-11-13--|
D|--x---x---x--x--x---|
A|--14--13--8--9--11--|
E|--------------------|


Intro II


Verse II
e|--------------------------------|
B|--------------------------------|
G|-----8--------------------------|
D|--4--8--9--4--------------------|
A|--4--6--9--4--------------------|
E|--2--6--7--2--------------------|
    .  .  .  .

Verse II
(Guitar I)
Verse I or something similar

Verse II
(Guitar II)
Same as above but doubble strums


Chorus


Bridge
(Guitar I)
e|----------------------------------------------------------|
B|----------------------------------------------------------| 
G|--15-13-15-13---8---11---15--16-13---15----8--15--16--18--|  
D|--x--x--x--x----x---x----x---x--x----x-----x--x---x---x---|  
A|--13-11-13-11---6---9----13--14-11---13----6--13--14--16--|  
E|----------------------------------------------------------|

Bridge
(Guitar II)
e|--------------------------------|
B|--------------------------------| (Not greatly confident in the bridge, guitars
G|--8----8--4-----6---8-----4--6--|  are too quiet again. It's late and i cba
D|--8----8--4--4--6---8--4--4--6--|  repeated the same 3 seconds to work it out,
A|--6----6--2--4--4---6--4--2--4--|  enjoy)
E|--6----6-----2--4---6--2-----4--|

Bridge
(Guitar I)
Intro I

Bridge
(Guitar II)
e|--------------|
B|--------------|
G|--15--13--16--|  x2
D|--x---x---x---|
A|--13--11--14--|
E|--------------|


Chorus


Intro II


If you've got any parts you think you know better feel free to reproduce the tab.
Thanks
            
Tabs too difficult? Try these video lessons and learn fast.




comments powered by Disqus
↑ Back to top | Tablatures and chords are parodies/interpretations of the original songs. You may use it for private study, scholarship, research or language learning purposes only