» » »

Burnt Jamb Tabs (ver.1)

Artists:  A B C D E F G H I J K L M N O P Q R S T U V W X Y Z # 

Burnt Jamb Tabs (ver.1)

Weezer
Rating:
0/5 (0 votes)
Tabs too difficult? Try these video lessons and learn fast.
                This song is in standard tuning.  It is from Weezer's CD Maladroit and was also released as an instrumental amd was a demo before that.

Main riff:

e--4-4-4-4-4-4-2-2-2-2-2-2-2-5-5-5-5-5-5-4-4-4-4-4-4-4-
b--2-2-2-2-2-2-2-2-2-2-2-2-2-3-3-3-3-3-3-3-3-3-3-3-3-3-
g------------------------------------------------------
d------------------------------------------------------
a------------------------------------------------------
e------------------------------------------------------

Chorus:

e-----------------------5------------------------5-----
b---------------------5------------------------5-------
g---------------0-5-7--------------------0-5-7---------
d---------7-5-7--------------------7-5-7---------------
a---0-0-5--------------------0-0-5---------------------
e------------------------------------------------------

e----------------------5-----------------------5-------
b--------------------5-----------------------5---------
g--------------0-5-7-------------------0-5-7-----------
d--------7-5-7-------------------7-5-7-----------------
a----0-5-------------------3-3-5-----------------------
e--1---------------------------------------------------

e----------------------5-------------------------------
b--------------------5---------------------------------
g--------------0-5-7-----------------------------------
d--------7-5-7-----------------------------------------
a--0-0-5-------------------0---------------------------
e------------------------------------------------------

Solo:

-12-12----12--12----12b(14)r12---------------------------------12---- 
-------14--------14-------------14-12-----------12---12----12----14- 
-----------------------------------------14---14---------14---------- 

----------14---------------16----------------17-14---14----14----14---- 
-14-12-14----15---15-14-15----17----17-15-17------------17----17----17- 


                                                                  
-------14---14----14----14------------16--16-14-16-14-16-14----14----14 
-14------------17----17----17---14-14-----------------------17----17--- 
-----16---------------------------------------------------------------- 

-16/17-17--16/17-17--17--20b(21)r20--19--20b(21)r20--19-20b(21)r20--19- 

-20b(21)r20--19--17-16---14\12- 
------------------------------- 
------------------------------- 
------------------------------- 
------------------------------- 
-------------------------------
            
Tabs too difficult? Try these video lessons and learn fast.


comments powered by Disqus
↑ Back to top | Tablatures and chords are parodies/interpretations of the original songs. You may use it for private study, scholarship, research or language learning purposes only