>
 >
Firewater 1

Firewater 1 Guitar Tabs

Yellowcard - Firewater 1 chords, tabs, tablatures, lyrics

Guitar lessons | Add/correct | Request | Top 50 tabs Artists:  A B C D E F G H I J K L M N O P Q R S T U V W X Y Z 0-9

Firewater 1 Guitar Tabs – Yellowcard

CD, Sheet music, Poster

Do you like Firewater 1? Share with your friends now
TabsTabs v2Tabs v3
Ok, so there's not too many tabs for this song, and it's a great song, so i think you 
should learn it. I know this tab is 98% correct.
I mainly wrote out the first guitar part, because it's the most important, but some 
guitar parts are in there.


Intro/Verse

    ------8x-----     -4x--   --------8x---     --4x------------------|
e||-0-----0-----0-----0---0---0-----0-----0-----0---0-----------------|
B||-0-----0-----0-----0---0---0-----0-----0-----0---0-----------------|
G||-4-----8-----6-----1---2---4-----8-----6-----9---8-----------------|
D||-------------------------------------------------------------------|
A||-------------------------------------------------------------------|
E||-------------------------------------------------------------------|


After Verse thing
(played by the second guitar, but this is the part)
e|-----0-------0-----0-------0------7------7-----7------------------|
B|-----9-------------7----------------------------------------------|
G|---9-------9-----9-------9------9-------9----9--------------------|
D|-7-------7-----7-------7------7-------7----7----------------------|
A|------------------------------------------------------------------|
E|------------------------------------------------------------------|


Pre Chorus
play this first bar 2x then the second bar 2x
e|------------------------------------------------------------------|
B|------------------------------------------------------------------|
G|----------------------------------------------9--9-9-9-9-9-9-9----|
D|-2-2x--6-6x--7--7-7-7-7-7-7-7--11-11x---9-9x--6--6-6-6-6-6-6-6----|
A|-2-2x--6-6x--4--4-4-4-4-4-4-4--11-11x---6-6x--7--7-7-7-7-7-7-7----|
E|-0-0x--4-4x--5--5-5-5-5-5-5-5---9--9x---7-7x----------------------|

e|------------------------------------------------------------------|
B|------------------------------------------------------------------|
G|------------------------------------------------------------------|
D|-2-2x--6-6x--7--7-7-7-7-7-7-7--11-11x---9-9x--6--6-6-6-6-6-6-6----|
A|-2-2x--6-6x--4--4-4-4-4-4-4-4--11-11x---6-6x--7--7-7-7-7-7-7-7----|
E|-0-0x--4-4x--5--5-5-5-5-5-5-5---9--9x-----------------------------|

Pre Chorus Part 2
(Second guitar plays this part too)
e|------------------------------------------------------------------|
B|---------------------0-------0-------2-----2-----2----------------|
G|-----2-------2-------1-------1-------2-----2-----2----------------|
D|-----4-------4---1-1---1-1-1---1-2-2---2-2---2-2------------------|
A|-0-0---0-0-0---0--------------------------------------------------|
E|------------------------------------------------------------------|


First Chorus
play the first 4 chords 8 times, the rest show the number of times played
e|------------------------------------------------------------------|
B|-9-7--4-5---------------------------------------------------------|
G|-9-9--6-6--------11x22-x4-4444444-x2-2222222-1-111111-------------|
D|-9-9--6-6--22x44x22x22-x2-2222222-x2-2222222-2-222222--4-6-4-222--|
A|-7-7--4-4--00x00x00x00-x0-0000000-x0-0000000-0-000000--0-0-0-000--|
E|------------------------------------------------------------------|


Verse 2 PALM MUTED
(this is second guitar also)
e|-----------------------------------------------------------------|
B|-----------------------------------------------------------------|
G|-----9-------9--------9-------9-------9-------9-------9------9---|
D|-----------------------------------------------------------------|
A|-7-7---7-7-7---7----------------------------------7-7---7-7-7--7-|
E|-----------------9-9----9-9-9---9-7-7---7-7-7---7-0-0---0-0-0--0-|

e|-----------------------------------------------------------------|
B|-----------------------------------------------------------------|
G|-----9-------9--------9-------9-------9-------9-------9---9------|
D|----------------------------------------------------------7------|
A|-7-7---7-7-7---7----------------------------------7-7---7-7------|
E|-----------------9-9----9-9-9---9-7-7---7-7-7---7-0-0---0-0------|


Pre Chorus 2
play first bar 1x then the second bar 1x
e|-----------------------------------------------------------------|
B|----------------x-x-x-x-x-x-x-x------------------x-x-x-x-x-x-x-x-|
G|----------------x-x-x-x-x-x-x-x---------------9--x-x-x-x-x-x-x-x-|
D|-2-2x--6-6x--7--x-x-x-x-x-x-x-x-11-11x--9-9x--6--x-x-x-x-x-x-x-x-|
A|-2-2x--6-6x--4--x-x-x-x-x-x-x-x-11-11x--6-6x--7--x-x-x-x-x-x-x-x-|
E|-0-0x--4-4x--5------------------9--9----7-7x---------------------|

e|-----------------------------------------------------------------|
B|----------------x-x-x-x-x-x-x-x------------------x-x-x-x-x-x-x-x-|
G|----------------x-x-x-x-x-x-x-x------------------x-x-x-x-x-x-x-x-|
D|-2-2x--6-6x--7--x-x-x-x-x-x-x-x-11-11x--9-9x--6--x-x-x-x-x-x-x-x-|
A|-2-2x--6-6x--4--x-x-x-x-x-x-x-x-11-11x--6-6x--7--x-x-x-x-x-x-x-x-|
E|-0-0x--4-4x--5------------------9--9-----------------------------|


Pre Chorus Part 2
e|------------------------------------------------------------------|
B|---------------------0-------0-------2-----2-----2----------------|
G|-----2-------2-------1-------1-------2-----2-----2----------------|
D|-----4-------4---1-1---1-1-1---1-2-2---2-2---2-2------------------|
A|-0-0---0-0-0---0--------------------------------------------------|
E|------------------------------------------------------------------|


Chorus 2
play both bars 1x
e|------------------------------------------------------------------|
B|-9--7----4--5-----------------------------------------------------|
G|-9--9----6--6----------11x22x-4-4444444--2-2222222----------------|
D|-9--9----6--6----22x44x22x22x-2-2222222--2-2222222----------------|
A|-7--7----4--4----00x00x00x00x-0-0000000--0-0000000----------------|
E|------------------------------------------------------------------|

e|------------------------------------------------------------------------|
B|-9-7---4-5--------------------------------------------------------------|
G|-9-9---6-6----------11x22x-4-4444444x-2-2222222x-1-1111111x-------------|
D|-9-9---6-6----22x44x22x22x-2-2222222x-2-2222222x-2-2222222x-4-4444444x-2|
A|-7-7---4-4----00x00x00x00x-0-0000000x-0-0000000x-0-0000000x-0-0000000x-2|
E|-----------------------------------------------------------------------0|


Bridge
For this part you could play either guitar 1 or 2

This is the second part: just play this chord forever...
e|-----|
B|-12--|
G|--x--|
D|--9--|
A|-----|
E|-----|

This is the first part: its rather fast, you can figure out the timing
e|--------------------------|
B|--------------------------|
G|-11111111----9-9-9-9------|
D|-11111111----9-9-9-9------|
A|--9-9-9-9----7-7-7-7------|
E|--0-0-0-0----0-0-0-0------|


After Verse thing, but in this case, after bridge thing.
e|-----0-------0-----0-------0------7------7-----7------------------|
B|-----9-------------7----------------------------------------------|
G|---9-------9-----9-------9------9-------9----9--------------------|
D|-7-------7-----7-------7------7-------7----7----------------------|
A|------------------------------------------------------------------|
E|------------------------------------------------------------------|


Chorus 2
e|------------------------------------------------------------------|
B|-9--7----4--5-----------------------------------------------------|
G|-9--9----6--6----------11x22x-4-4444444--2-2222222----------------|
D|-9--9----6--6----22x44x22x22x-2-2222222--2-2222222----------------|
A|-7--7----4--4----00x00x00x00x-0-0000000--0-0000000----------------|
E|------------------------------------------------------------------|

e|------------------------------------------------------------------|
B|-9-7---4-5--------------------------------------------------------|
G|-9-9---6-6----------11x22x-4-4444444x-2-2222222-------------------|
D|-9-9---6-6----22x44x22x22x-2-2222222x-2-2222222-------------------|
A|-7-7---4-4----00x00x00x00x-0-0000000x-0-0000000-------------------|
E|------------------------------------------------------------------|


After Chorus thing.
e|---------------------------------------|
B|---------------------------------------|
G|-9--9-9-9-9-9-9-9---6--6-6-6-6-6-6-6---|
D|-9--9-9-9-9-9-9-9---6--6-6-6-6-6-6-6---|
A|-7--7-7-7-7-7-7-7---7--7-7-7-7-7-7-7---|
E|-0--0-0-0-0-0-0-0---9--9-9-9-9-9-9-9---|

e|-------------------------------------------------------------------|
B|-------------------------------------------------------------------|
G|-------11x22x-4-4444444x-2-2222222x-1-1111111x---------------------|
D|-22x44x22x22x-2-2222222x-2-2222222x-2-2222222x-4-4444444x-2--------|
A|-00x00x00x00x-0-0000000x-0-0000000x-0-0000000x-0-0000000x-2--------|
E|----------------------------------------------------------0--------|


Outro
e|-0-----0-----0-----0---0---0-----0-----0--------------------------||
B|-0-----0-----0-----0---0---0-----0-----0--------------------------||
G|-4-----8-----6-----1---2---4-----8-----2--------------------------||
D|------------------------------------------------------------------||
A|------------------------------------------------------------------||
E|------------------------------------------------------------------||

thats it, its a great song, hope you enjoy this tab





Comments


Popular Yellowcard tabs & chords
Believe 1 Bass Tabs
Cut Me Mick Bass Tabs
Empty Apartment 3 Bass Tabs
Only One Bass Tabs
Gifts And Curses 1 Chords
View From Heaven 3 Chords
One Year, Six Months 1 Tabs
Promises Tabs
The Sound Of You And Me Tabs
Twenty Three Tabs


Song lyrics



↑ Back to top | Tablatures and chords are parodies/interpretations of the original songs. You may use it for private study, scholarship, research or language learning purposes only
© 2014 AZChords.com Contact us | Privacy policy | DMCA | Add/correct tabs | Request tabs | Top 50 tabs