>
 >
Miles Apart Intro

Miles Apart Intro Guitar Tabs

Yellowcard - Miles Apart Intro chords, tabs, tablatures, lyrics

Guitar lessons | Add/correct | Request | Top 50 tabs Artists:  A B C D E F G H I J K L M N O P Q R S T U V W X Y Z 0-9

Miles Apart Intro Guitar Tabs – Yellowcard

CD, Sheet music, Poster

Do you like Miles Apart Intro? Share with your friends now
Tabs
--------------------------
 Miles Apart ~ Yellowcard
--------------------------

(I know, pretty lame name)

Part: Intro

Tuning: Drop D

Tempo: 188

Key: D

Timing: 4/4

Dynamic: f



  Guitar 1
E|---------------------------------|---------------------------------|
B|---------------------------------|---------------------------------|
G|11--11--11---9---9---9---7---7---|11--11--11---9---9---9---7---7---|
D|-X---X---X---X---X---X---X---X---|-X---X---X---X---X---X---X---X---|
A|-9---9---9---7---7---7---5---5---|-9---9---9---7---7---7---5---5---|
D|---------------------------------|---------------------------------|
   1 e + a 2 e + a 3 e + a 4 e + a | 1 e + a 2 e + a 3 e + a 4 e + a 


  Guitar 1
E|---------------------------------|---------------------------------|
B|---------------------------------|---------------------------------|
G|11--11--11---9---9---9---7---7---|11--11--11---9---9---9---7---7---|
D|-X---X---X---X---X---X---X---X---|-X---X---X---X---X---X---X---X---|
A|-9---9---9---7---7---7---5---5---|-9---9---9---7---7---7---5---5---|
D|---------------------------------|---------------------------------|
 | 1 e + a 2 e + a 3 e + a 4 e + a | 1 e + a 2 e + a 3 e + a 4 e + a |
 |                                 |                                 |
 |Guitar 2                         |                                 |
E|---------------------------------|---------------------------------|
B|---------------------------------|---------------------------------|
G|---------------------------------|---------------------------------|
D|---------------------------------|---------------------------------|
A|---------------------------------|---------------------------------|
D|---------------------------------|------------------------12\------|
   1 e + a 2 e + a 3 e + a 4 e + a | 1 e + a 2 e + a 3 e + a 4 e + a


  Guitar 1
E|---------------------------------|---------------------------------|
B|---------------------------------|---------------------------------|
G|11--11--11---9---9---9---7---7---|11--11--11---9---9---9---7---7---|
D|-X---X---X---X---X---X---X---X---|-X---X---X---X---X---X---X---X---|
A|-9---9---9---7---7---7---5---5---|-9---9---9---7---7---7---5---5---|
D|---------------------------------|---------------------------------|
 | 1 e + a 2 e + a 3 e + a 4 e + a | 1 e + a 2 e + a 3 e + a 4 e + a |
 |                                 |                                 |
 |Guitar 2                         |                                 |
E|---------------------------------|---------------------------------|
B|---------------------------------|---------------------------------|
G|---------------------------------|---------------------------------|
D|0------------0---0---------------|0------------0---0---------------|
A|0------------0---0---------------|0------------0---0---------------|
D|0------------0---0-------0-0-0-0-|0------------0---0-------0---0---|
   1 e + a 2 e + a 3 e + a 4 e + a | 1 e + a 2 e + a 3 e + a 4 e + a


  Guitar 1
E|---------------------------------|---------------------------------|
B|---------------------------------|---------------------------------|
G|11--11--11---9---9---9---7---7---|11--11--11---9---9---9---7---7---|
D|-X---X---X---X---X---X---X---X---|-X---X---X---X---X---X---X---X---|
A|-9---9---9---7---7---7---5---5---|-9---9---9---7---7---7---5---5---|
D|---------------------------------|---------------------------------|
 | 1 e + a 2 e + a 3 e + a 4 e + a | 1 e + a 2 e + a 3 e + a 4 e + a |
 |                                 |                                 |
 |Guitar 2                         |                                 |
E|---------------------------------|---------------------------------|
B|---------------------------------|---------------------------------|
G|---------------------------------|---------------------------------|
D|5------------5---5---------------|5------------5---5---------------|
A|5------------5---5---------------|5------------5---5---------------|
D|5------------5---5-------5-5-5-5-|5------------5---5-------5---5---|
   1 e + a 2 e + a 3 e + a 4 e + a | 1 e + a 2 e + a 3 e + a 4 e + a


  Guitar 1
E|---------------------------------|---------------------------------|
B|---------------------------------|---------------------------------|
G|11--11--11---9---9---9---7---7---|11--11--11---9---9---9---7---7---|
D|-X---X---X---X---X---X---X---X---|-X---X---X---X---X---X---X---X---|
A|-9---9---9---7---7---7---5---5---|-9---9---9---7---7---7---5---5---|
D|---------------------------------|---------------------------------|
 | 1 e + a 2 e + a 3 e + a 4 e + a | 1 e + a 2 e + a 3 e + a 4 e + a |
 |                                 |                                 |
 |Guitar 2                         |                                 |
E|---------------------------------|---------------------------------|
B|---------------------------------|---------------------------------|
G|---------------------------------|---------------------------------|
D|9------------9---9---------------|9------------9---9---------------|
A|9------------9---9---------------|9------------9---9---------------|
D|9------------9---9-------9-9-9-9-|9------------9---9-------9---9---|
   1 e + a 2 e + a 3 e + a 4 e + a | 1 e + a 2 e + a 3 e + a 4 e + a


  Guitar 1
E|---------------------------------|---------------------------------|
B|---------------------------------|---------------------------------|
G|11--11--11---9---9---9---7---7---|11--11--11---9---9---9---7---7---|
D|-X---X---X---X---X---X---X---X---|-X---X---X---X---X---X---X---X---|
A|-9---9---9---7---7---7---5---5---|-9---9---9---7---7---7---5---5---|
D|---------------------------------|---------------------------------|
 | 1 e + a 2 e + a 3 e + a 4 e + a | 1 e + a 2 e + a 3 e + a 4 e + a |
 |                                 |                                 |
 |Guitar 2                         |                                 |
E|---------------------------------|---------------------------------|
B|---------------------------------|---------------------------------|
G|---------------------------------|---------------------------------|
D|5------------5---5---------------|5------------5---5---------------|
A|5------------5---5---------------|5------------5---5---------------|
D|5------------5---5-------5-5-5-5-|5------------5---5-------5---5---|
 | 1 e + a 2 e + a 3 e + a 4 e + a | 1 e + a 2 e + a 3 e + a 4 e + a |
 |                                 |                                 |
 |Guitar 3                         |                                 |
E|---------------------------------|---------------------------------|
B|---------------------------------|---------------------------------|
G|---------------------------------|------------------------11--11---|
D|---------------------------------|-------------------------X---X---|
A|---------------------------------|-------------------------9---9---|
D|---------------------------------|---------------------------------|
   1 e + a 2 e + a 3 e + a 4 e + a | 1 e + a 2 e + a 3 e + a 4 e + a


  Guitar 1
E|---------------------------------|---------------------------------|
B|---------------------------------|---------------------------------|
G|11--11--11---9---9---9---7---7---|11--11--11---9---9---9---7---7---|
D|-X---X---X---X---X---X---X---X---|-X---X---X---X---X---X---X---X---|
A|-9---9---9---7---7---7---5---5---|-9---9---9---7---7---7---5---5---|
D|---------------------------------|---------------------------------|
 | 1 e + a 2 e + a 3 e + a 4 e + a | 1 e + a 2 e + a 3 e + a 4 e + a |
 |                                 |                                 |
 |Guitar 2                         |                                 |
E|---------------------------------|---------------------------------|
B|---------------------------------|---------------------------------|
G|---------------------------------|---------------------------------|
D|0------------0---0-------0-------|0------------0---0-------0-------|
A|0------------0---0-------0-------|0------------0---0-------0-------|
D|0------------0---0-------0-------|0------------0---0-------0-------|
 | 1 e + a 2 e + a 3 e + a 4 e + a | 1 e + a 2 e + a 3 e + a 4 e + a |
 |                                 |                                 |
 |Guitar 3                         |                                 |
E|---------------------------------|---------------------------------|
B|---------------------------------|---------------------------------|
G|14--14--14--12--12--12--11--11---|14--14--14--12--12--12--11--11---|
D|-X---X---X---X---X---X---X---X---|-X---X---X---X---X---X---X---X---|
A|12--12--12--10--10--10---9---9---|12--12--12--10--10--10---9---9---|
D|---------------------------------|---------------------------------|
   1 e + a 2 e + a 3 e + a 4 e + a | 1 e + a 2 e + a 3 e + a 4 e + a


  Guitar 1
E|---------------------------------|---------------------------------|
B|---------------------------------|---------------------------------|
G|11--11--11---9---9---9---7---7---|11--11--11---9---9---9---7---7---|
D|-X---X---X---X---X---X---X---X---|-X---X---X---X---X---X---X---X---|
A|-9---9---9---7---7---7---5---5---|-9---9---9---7---7---7---5---5---|
D|---------------------------------|---------------------------------|
 | 1 e + a 2 e + a 3 e + a 4 e + a | 1 e + a 2 e + a 3 e + a 4 e + a |
 |                                 |                                 |
 |Guitar 2                         |                                 |
E|---------------------------------|---------------------------------|
B|---------------------------------|---------------------------------|
G|---------------------------------|---------------------------------|
D|5------------5---5-------5-------|5------------5---5-------5-------|
A|5------------5---5-------5-------|5------------5---5-------5-------|
D|5------------5---5-------5-------|5------------5---5-------5-------|
 | 1 e + a 2 e + a 3 e + a 4 e + a | 1 e + a 2 e + a 3 e + a 4 e + a |
 |                                 |                                 |
 |Guitar 3                         |                                 |
E|---------------------------------|---------------------------------|
B|---------------------------------|---------------------------------|
G|14--14--14--12--12--12--11--11---|14--14--14--12--12--12--11--11---|
D|-X---X---X---X---X---X---X---X---|-X---X---X---X---X---X---X---X---|
A|12--12--12--10--10--10---9---9---|12--12--12--10--10--10---9---9---|
D|---------------------------------|---------------------------------|
   1 e + a 2 e + a 3 e + a 4 e + a | 1 e + a 2 e + a 3 e + a 4 e + a


  Guitar 1
E|---------------------------------|---------------------------------|
B|---------------------------------|---------------------------------|
G|11--11--11---9---9---9---7---7---|11--11--11---9---9---9---7---7---|
D|-X---X---X---X---X---X---X---X---|-X---X---X---X---X---X---X---X---|
A|-9---9---9---7---7---7---5---5---|-9---9---9---7---7---7---5---5---|
D|---------------------------------|---------------------------------|
 | 1 e + a 2 e + a 3 e + a 4 e + a | 1 e + a 2 e + a 3 e + a 4 e + a |
 |                                 |                                 |
 |Guitar 2                         |                                 |
E|---------------------------------|---------------------------------|
B|---------------------------------|---------------------------------|
G|---------------------------------|---------------------------------|
D|9------------9---9-------9-------|9------------9---9-------9-------|
A|9------------9---9-------9-------|9------------9---9-------9-------|
D|9------------9---9-------9-------|9------------9---9-------9-------|
 | 1 e + a 2 e + a 3 e + a 4 e + a | 1 e + a 2 e + a 3 e + a 4 e + a |
 |                                 |                                 |
 |Guitar 3                         |                                 |
E|---------------------------------|---------------------------------|
B|---------------------------------|---------------------------------|
G|14--14--14--12--12--12--11--11---|14--14--14--12--12--12--11--11---|
D|-X---X---X---X---X---X---X---X---|-X---X---X---X---X---X---X---X---|
A|12--12--12--10--10--10---9---9---|12--12--12--10--10--10---9---9---|
D|---------------------------------|---------------------------------|
   1 e + a 2 e + a 3 e + a 4 e + a | 1 e + a 2 e + a 3 e + a 4 e + a


  Guitar 1
E|---------------------------------|---------------------------------|
B|---------------------------------|---------------------------------|
G|11--11--11---9---9---9---7---7---|-7/--9---7/--9---7/--9---7/--9---|
D|-X---X---X---X---X---X---X---X---|-X---X---X---X---X---X---X---X---|
A|-9---9---9---7---7---7---5---5---|-5/--7---5/--7---5/--7---5/--7---|
D|---------------------------------|---------------------------------|
 | 1 e + a 2 e + a 3 e + a 4 e + a | 1 e + a 2 e + a 3 e + a 4 e + a |
 |                                 |                                 |
 |Guitar 2                         |                                 |
E|---------------------------------|---------------------------------|
B|---------------------------------|---------------------------------|
G|---------------------------------|---------------------------------|
D|5------------5---5-------5-------|5------------5---5-------5-------|
A|5------------5---5-------5-------|5------------5---5-------5-------|
D|5------------5---5-------5-------|5------------5---5-------5-------|
 | 1 e + a 2 e + a 3 e + a 4 e + a | 1 e + a 2 e + a 3 e + a 4 e + a |
 |                                 |                                 |
 |Guitar 3                         |                                 |
E|---------------------------------|---------------------------------|
B|---------------------------------|---------------------------------|
G|14--14--14--12--12--12--11--11---|11/-12--11/-12--11/-12--11/-12---|
D|-X---X---X---X---X---X---X---X---|-X---X---X---X---X---X---X---X---|
A|12--12--12--10--10--10---9---9---|-9/-10---9/-10---9/-10---9/-10---|
D|---------------------------------|---------------------------------|
   1 e + a 2 e + a 3 e + a 4 e + a | 1 e + a 2 e + a 3 e + a 4 e + a



  Guitar 1
E|---------------------------------|
B|---------------------------------|
G|-7-------------------------------|
D|-X-------------------------------|
A|-5-------------------------------|
D|---------------------------------|
 | 1 e + a 2 e + a 3 e + a 4 e + a | 
 |                                 |                                 
 |Guitar 2                         |                                 |
E|---------------------------------|
B|---------------------------------|
G|---------------------------------|
D|-7---7---7---7---7---7---7---7---|
A|-5---5---5---5---5---5---5---5---|
D|---------------------------------|
 | 1 e + a 2 e + a 3 e + a 4 e + a |
 |                                 |                                 
 |Guitar 3                         |                                 
E|---------------------------------|
B|---------------------------------|
G|11-------------------------------|
D|-X-------------------------------|
A|-9-------------------------------|
D|---------------------------------|
   1 e + a 2 e + a 3 e + a 4 e + a   





Comments


Popular Yellowcard tabs & chords
City Of Devils 1 Chords
Gifts And Curses 1 Chords
Light Up The Sky 1 Chords
One Year, Six Months Chords
Only One 10 Chords
Only One 3 Chords
Shadows And Regrets Chords
Dear Bobbie Tabs
Rock Star Land 1 Tabs
When Were Old Men Tabs


Song lyrics



↑ Back to top | Tablatures and chords are parodies/interpretations of the original songs. You may use it for private study, scholarship, research or language learning purposes only
© 2014 AZChords.com Contact us | Privacy policy | DMCA | Add/correct tabs | Request tabs | Top 50 tabs