>
 >
Leave Me Be

Leave Me Be Bass Tabs

Zombies - Leave Me Be chords, tabs, tablatures, lyrics

Guitar lessons | Add/correct | Request | Top 50 tabs Artists:  A B C D E F G H I J K L M N O P Q R S T U V W X Y Z 0-9

Leave Me Be Bass Tabs – Zombies

CD, Sheet music, Poster

Do you like Leave Me Be? Share with your friends now
Bass TabsChordsChords v2Ukulele
Leave Me Be
The Zombies
Written by Chris White; released as a single with "Woman" as the B-side.

Intro:
G|------- ------- ------- -------|------- ------- ------- -------|
D|2-----------2-----------2------|-------------------------------|
A|----------------------------3--|3-----------3-----------3------|
E|-------------------------------|----------------------------3--|



G|------- ------- ------- -------|------- ------- ------- -------|
D|3-----------3-----------3------|5-----------5-----------5---0--|
A|----------------------------3--|-------------------------------|
E|-------------------------------|-------------------------------|


Verse:
G|------- ------- ------- -------|------- ------- ------- -------|
D|2-----------2-----------2------|-------------------------------|
A|----------------------------3--|3-----------3-----------3------|
E|-------------------------------|----------------------------3--|
  If  it      seems   that        I'm too     qui  -  et,


G|------- ------- ------- -------|------- ------- ------- -------|
D|3-----------3-----------3------|5-----------5-----------5---0--|
A|----------------------------3--|-------------------------------|
E|-------------------------------|-------------------------------|
          that's 'cause I'm       missin'     her,        My


G|------- ------- ------- -------|------- ------- ------- -------|
D|2-----------2-----------2------|-------------------------------|
A|----------------------------3--|3-----------3-----------3------|
E|-------------------------------|----------------------------3--|
  mind    tells   me  I           have to     fight,


G|------- ------- ------- -------|------- ------- ------- -------|
D|3-----------3-----------3------|5-------------------5----------|
A|----------------------------3--|------------------------5---7--|
E|-------------------------------|-------------------------------|
          but I   can't help      missin'     her.


G|------- ------- ------- -------|------- ------- ------- ----2--|
D|-------------------------------|------------------------3------|
A|5------------------------------|--------------------3----------|
E|-------------------------------|-------------------------------|
    You'd leave on own,
      better me   my

G|------- ------- ------- -------|------- ------- ------- -------|
D|2------------------------------|-------------------------------|
A|-------------------------------|------------------------2---2--|
E|-------------------------------|-------------------------------|
    you'd leave alone                             Un- til
      better  me

G|------- ------- ------- -------|------- ------- ------- -------|
D|2-----------2-----------2------|-------------------------------|
A|----------------------------3--|3-----------3-----------3------|
E|-------------------------------|----------------------------3--|
  I   can         think a  -  bout    her             without


G|------- ------- ------- -------|------- ------- ------- -------|
D|3-----------3-----------3------|5-----------5-----------5---0--|
A|----------------------------3--|-------------------------------|
E|-------------------------------|-------------------------------|
  feelin'         sorry           for my  -   self.

Refrain:
G|------- ------- ------- -------|------- ------- ------- -------|
D|2---2-------2---2---2-------2--|-------------------------------|
A|-------------------------------|3---3-------3---3---3-------3--|
E|-------------------------------|-------------------------------|
      You'd better leave me   be                  till I      don't


G|------- ------- ------- -------|------- ------- ------- -------|
D|5---5-------5-------5-------5--|5---5-------5---5---5-------5--|
A|----------------5--------------|-------------------------------|
E|-------------------------------|-------------------------------|
  need                    her     a - ny      more,


G|------- ------- ------- -------|------- ------- ------- -------|
D|2-----------2---2---2-------2--|-------------------------------|
A|-------------------------------|3---3-------3---3---3-------5--|
E|-------------------------------|-------------------------------|
      I   don't   wanna       meet    her a - gain        un-


G|------- ------- ------- -------|------- ------- ------- -------|
D|-------------------------------|-------------------------------|
A|5---5-------5-------5-------5--|5---5-------5---5---5-------5--|
E|-------------------------------|-------------------------------|
  til I'm     sure            I'm o - ver     her         my-

Verse:
G|------- ------- ------- -------|------- ------- ------- -------|
D|2-----------2-----------2------|-------------------------------|
A|----------------------------3--|3-----------3-----------3------|
E|-------------------------------|----------------------------3--|
  self.           Feeling         tired   and wan  -  tin'


G|------- ------- ------- -------|------- ------- ------- -------|
D|3-----------3-----------3------|5-----------5-----------5---0--|
A|----------------------------3--|-------------------------------|
E|-------------------------------|-------------------------------|
          is      not  like  I    thought it would be,


G|------- ------- ------- -------|------- ------- ------- -------|
D|2-----------2-----------2------|-------------------------------|
A|----------------------------3--|3-----------3-----------3------|
E|-------------------------------|----------------------------3--|
  Love    just    cannot          end that    par  -  ty,


G|------- ------- ------- -------|------- ------- ------- -------|
D|3-----------3-----------3------|5-------------------5----------|
A|----------------------------3--|------------------------5---7--|
E|-------------------------------|-------------------------------|
          my      dropped     from under      me.
              world's

G|------- ------- ------- -------|------- ------- ------- ----2--|
D|-------------------------------|------------------------3------|
A|5------------------------------|--------------------3----------|
E|-------------------------------|-------------------------------|
    You'd leave on own,
      better me   my

G|------- ------- ------- -------|------- ------- ------- -------|
D|2------------------------------|-------------------------------|
A|-------------------------------|------------------------2---2--|
E|-------------------------------|-------------------------------|
    you'd leave alone                             Un- til
      better  me

G|------- ------- ------- -------|------- ------- ------- -------|
D|2-----------2-----------2------|-------------------------------|
A|----------------------------3--|3-----------3-----------3------|
E|-------------------------------|----------------------------3--|
  I   can         think a  -  bout    her             without


G|------- ------- ------- -------|------- ------- ------- -------|
D|3-----------3-----------3------|5-----------5-----------5------|
A|----------------------------3--|----------------------------5--|
E|-------------------------------|-------------------------------|
  feelin'         sorry           for my  -   self.

Refrain:
G|------- ------- ------- -------|------- ------- ------- -------|
D|-------------------------------|-------------------------------|
A|7---7-------7---7---7-------5--|3---3-------3---3---3-------3--|
E|-------------------------------|-------------------------------|
      You'd better leave me   be                  till I      don't


G|------- ------- ------- -------|------- ------- ------- -------|
D|5---5-------5---5---5-------5--|5---5-------5---5-----------5--|
A|-------------------------------|-------------------------------|
E|-------------------------------|-------------------------------|
  need                    her     a - ny      more,


G|------- ------- ------- -------|------- ------- ------- -------|
D|2---2-------2---2---2-------2--|-------------------------------|
A|-------------------------------|3---3-------3---3---3-------5--|
E|-------------------------------|-------------------------------|
      I   don't   wanna       meet    her a - gain        un-


G|------- ------- ------- -------|------- ------- ------- -------|
D|-------------------------------|-------------------------------|
A|5---5-------5---5---5-------5--|5---5-------5---5---5-------5--|
E|-------------------------------|-------------------------------|
  til I'm     sure            I'm o - ver     her.

Verse (half-solo):
G|------- ------- ------- -------|------- ------- ------- -------|
D|2-----------2-----------2------|-------------------------------|
A|----------------------------3--|3-----------3-----------3------|
E|-------------------------------|----------------------------3--|



G|------- ------- ------- -------|------- ------- ------- -------|
D|3-----------3-----------3------|5-----------5-----------5---0--|
A|----------------------------3--|-------------------------------|
E|-------------------------------|-------------------------------|



G|------- ------- ------- -------|------- ------- ------- -------|
D|2-----------2-----------2------|-------------------------------|
A|----------------------------3--|3-----------3-----------3------|
E|-------------------------------|----------------------------3--|



G|------- ------- ------- -------|------- ------- ------- -------|
D|3-----------3-----------3------|5-------------------5----------|
A|----------------------------3--|------------------------5---7--|
E|-------------------------------|-------------------------------|



G|------- ------- ------- -------|------- ------- ------- ----2--|
D|-------------------------------|------------------------3------|
A|5------------------------------|--------------------3----------|
E|-------------------------------|-------------------------------|
          Oh,     oh,     oh,     oh,


G|------- ------- ------- -------|------- ------- ------- -------|
D|2------------------------------|--------------------2---0---2--|
A|-------------------------------|-------------------------------|
E|-------------------------------|-------------------------------|
          oh,     oh,     oh,     oh!


G|------- ------- ------- -------|------- ------- ------- -------|
D|-------------------------------|-------------------------------|
A|0------------------------------|-------------------------------|
E|-------------------------------|-------------------------------|


Please e-mail me for any corrections, or write a comment.





Comments


Popular Zombies tabs & chords
Care Of Cell 44 1 Bass Tabs
Time Of The Season Bass Tabs
Tell Her No 3 Chords
Time Of The Season 1 Chords
Hung Up On A Dream Tabs
She's Not There Tabs
Beechwood Park Ukulele
Friends Of Mine Ukulele
I Remember When I Loved Her Ukulele
You Really Got A Hold On Me Ukulele


Song lyrics



↑ Back to top | Tablatures and chords are parodies/interpretations of the original songs. You may use it for private study, scholarship, research or language learning purposes only
© 2014 AZChords.com Contact us | Privacy policy | DMCA | Add/correct tabs | Request tabs | Top 50 tabs