» » »

Mission Tabs (ver.1)

Artists:  A B C D E F G H I J K L M N O P Q R S T U V W X Y Z # 

Mission Tabs (ver.1)

Dispatch
Rating:
0/5 (0 votes)
Tabs too difficult? Try these video lessons and learn fast.
                PROPS GO TO: Bdee

Mission By dispatch 
Tab made By the one know has bdee 

(00:15)

E|----------------------------------
B|----------------------------------
G|-6-6-6-6--x-x-\-8-8-8-6-6-6-6-x-x-
D|-6-6-6-6--x-x-\-8-8-8-6-6-6-6-x-x-
A|-4-4-4-4--x-x-\-6-6-6-4-4-4-4-x-x-
E|----------------------------------

Then:
00:21

E|-4-4-4-4-x-x-\-6-6-6-4-4-4-4-x-x-
B|-4-4-4-4-x-x-\-6-6-6-4-4-4-4-x-x-
G|-5-5-5-5-x-x-\-7-7-7-5-5-5-5-x-x-
D|-6-6-6-6-x-x-\-8-8-8-6-6-6-6-x-x-
A|---------------------------------
E|---------------------------------

heres some timing to help you my brothers!

(00:15) (00:17) (00:20) (00:21)
  C#       D#     G#      A#       
            
Tabs too difficult? Try these video lessons and learn fast.


comments powered by Disqus
↑ Back to top | Tablatures and chords are parodies/interpretations of the original songs. You may use it for private study, scholarship, research or language learning purposes only