» » »

Your Gravest Words Tabs (ver.2)

Artists:  A B C D E F G H I J K L M N O P Q R S T U V W X Y Z # 

Your Gravest Words Tabs (ver.2)

Lawrence Arms
Rating:
5/5 (5 votes)

Tabs too difficult? Try these video lessons and learn fast.
                This song is one of my favorite Lawrence arms' songs and the other tab
wasn't right so I made my own. I'm almost 100% positive this is right but if not sorry.

Intro
e|--------------------------|-----------------------------
b|--------------------------|-----------------------------
g|44444-33333-88888-99-88888|44444-33333------------------
d|44444-44444-99999-99-99999|44444-44444-66666-44444-22222
a|22222-22222-77777-77-77777|22222-22222-66666-44444-22222
E|--------------------------|------------44444-22222-00000


Verse
e|
b|
g|444444-999999-
d|444444-999999-6666-4444-2222
a|222222-777777-6666-4444-2222
E|--------------4444-2222-0000
PM............................

Verse pt 2
e|----------------------
b|----------------------
g|------8---------------
d|--8--9--6666-4444-2222
a|-9--7---6666-4444-2222
E|7-------4444-2222-0000

Verse pt 3
e|----------------------|-----------------------|
b|----------------------|-----------------------|on last time
g|--------------------*2|---------------------*2|
d|66666-44444-22222222--|44444-66666-22222222---|44444
a|66666-44444-22222222--|44444-66666-22222222---|44444
E|44444-22222-00000000--|22222-44444-00000000---|22222
PM....................... ...................

Chorus
e|
b|---------------------------------------------*2
g|44444-33333-88888-99-8888--------------------
d|44444-44444-99999-99-9999-66666-44444-222222-
a|22222-22222-77777-77-7777-66666-44444-222222-
E|--------------------------44444-22222-000000-

Chorus pt 2
e|
b|
g|----------------------
d|666666-444444-22222222
a|666666-444444-22222222
E|444444-222222-00000000
PM......................

Repeat Intro

Repeat Verse prt 2 and 3

Repeat Chrous (just make Chorus Pt 2 end on F#)

Bridge
e|-----------------------------------------------------------------------------
b|-----------------------------------------------------------------------------
g|-------------------*2|-----------------------------------4-------------------
d|--6---2---6---4---2--|--6666-4444-222222-6666-4444-2-2-2-4-2-44444-22222-4444
a|-6---2---6---4---2---|--6666-4444-222222-6666-4444-2-2-2-2-2-44444-22222-4444
E|4---0---4---2---0----|--4444-2222-000000-4444-2222-0-0-0---0-22222-00000-2222



Chorus
e|
b|---------------------------------------------*2
g|44444-33333-88888-99-8888--------------------
d|44444-44444-99999-99-9999-66666-44444-222222-
a|22222-22222-77777-77-7777-66666-44444-222222-
E|--------------------------44444-22222-000000-

Chorus pt 2(this time without palm mutes)
e|
b|----------------------*2
g|----------------------
d|666666-444444-22222222
a|666666-444444-22222222
E|444444-222222-00000000


Outro
e|
b|------------------------------
g|------------------------4~~~~~
d|666666-444444-2222-4444-4~~~~~
a|666666-444444-2222-4444-2~~~~~
E|444444-222222-0000-2222-------
PM.......................
            
Tabs too difficult? Try these video lessons and learn fast.




comments powered by Disqus
↑ Back to top | Tablatures and chords are parodies/interpretations of the original songs. You may use it for private study, scholarship, research or language learning purposes only