» » »

Your Gravest Words Tabs (ver.1)

Artists:  A B C D E F G H I J K L M N O P Q R S T U V W X Y Z # 

Your Gravest Words Tabs (ver.1)

Lawrence Arms
Rating:
0/5 (0 votes)
Tabs too difficult? Try these video lessons and learn fast.
                Hello, i like this song and id like people to play it cos its a damn beautiful tune.

here goes, correct me if im wrong......chris has quite a unique style.

palm mute = ~
let chord ring out = ^

intro:

e/----------------------------------(Di)---------
b/----------------------------------(st)---------
g/-------------------8888-99-8------(or)-88-66-4-
d/----9999-8888-9999-99-9-9999-8888-(ti)-88-66-4-
a/----9999-9999-7777-77-7-9999-9999-(on)-66-44-2-     :repeat twice
e/----7777-7777-----------7777-7777-(!!)---------

verse 1:

e/------------------------------------------------------
b/------------------------------------------------------
g/----------------9~~~~~~~~~~8~~~~6~~~~~~~~~~~~~4~~~~~~~^
d/----9~~~~~~~~~~-9~~~~~~~~~~8~~~~6~~~~~~~~~~~~~4~~~~~~~^
a/----9~~~~~~~~~~-7~~~~~~~~~~6~~~~4~~~~~~~~~~~~~2~~~~~~~^
e/----7~~~~~~~~~~---------------------------------------
       all these, words trip,over cracks in the sidewalks

e/----------------------------------------------
b/----------------------------------------------
g/---------------8^^^^^---8~~6~~~~~~~~~4~~~~~~~~
d/------8^^^^^--9^^^^^----8~~6~~~~~~~~~4~~~~~~~~
a/-----9^^^^^--7^^^^^-----6~~4~~~~~~~~~2~~~~~~~~
e/----7^^^^^------------------------------------
       Uptown, one year, im distantly distressed

 e/--------------------------------------------------------------------
 b/--------------------------------------------------------------------
 g/----8~~6~~~~~~~4~~~~~~~~~~~~~~~~~~~~--8~~6~~~~~~4~~~~~~~~~~~~~~~~~~~
 d/----8~~6~~~~~~~4~~~~~~~~~~~~~~~~~~~~--8~~6~~~~~~4~~~~~~~~~~~~~~~~~~~
 e/----6~~4~~~~~~~2~~~~~~~~~~~~~~~~~~~~--6~~4~~~~~~2~~~~~~~~~~~~~~~~~~~  
 a/--------------------------------------------------------------------
       im finally, coming close to ghost, im dancing on ur gravest words 
repeat:im toasting all the coldest stares, all the lonliest of eyes

chorus:

e/-----------------------------------------------------------
b/-----------------------------------------------------------
g/------------9--------------8----6------------4-------------
d/----9-------9--------------8----6------------4-------------
a/----9-------7--------------6----4------------2-------------
e/----7------------------------------------------------------ 
       I am a satellite,     never getting     signals right,
repeat:U are a constilation, i can barely make u out tonight
 
e/---------------------------------------------
b/---------------------------------------------
g/----8~~~6~~~~4^^^^^^^^^^6^^^^^^^^^^^^^^^^^^^^
d/----8~~~6~~~~4^^^^^^^^^^6^^^^^^^^^^^^^^^^^^^^
a/----6~~~4~~~~2^^^^^^^^^^4^^^^^^^^^^^^^^^^^^^^
e/---------------------------------------------
      The city lights.....are burning to bright

Then back to the intro:

Verse 2: same as Verse 1

Brigde:

e/--------------------------------------------------------------------------
b/--------------------------------------------------------------------------
g/--------------8^^^^^8^6^4^^^-8-----6---------------4----------------------
d/------8^^^^^-9^^^^^8^6^4^^^^-8-----6---------------4----------------------
a/---- 9^^^^^-7^^^^^6^4^2^^^^--6-----4---------------2----------------------
e/----7^^^^^----------------------------------------------------------------
                            and the dreamers, walk slowly through the crowd,
                     repeat:        nothing, can stop us now 

then another chorus which the song ends on

end. 


thanx uve been great
tom paine
            
Tabs too difficult? Try these video lessons and learn fast.


comments powered by Disqus
↑ Back to top | Tablatures and chords are parodies/interpretations of the original songs. You may use it for private study, scholarship, research or language learning purposes only